» » »

Fenix Tx, Threesome Tabs (ver.2)

Artists:  A B C D E F G H I J K L M N O P Q R S T U V W X Y Z # 

Threesome Tabs (ver.2)

Fenix Tx Tabs
Rating:
3/5 (9 votes)
Hard to play? Try these video lessons and learn fast.
                                     FENIX TX - THREESOME


Standard Tuning



Verse 1: 
-|--------------------------------------------------------------------------|-
-|--------------------------------------------------------------------------|-
-|-7-7--7-7--7-7--7-7--4-4--4-4--4-4--4-4-xxxx------------------------------|-
-|-7-7--7-7--7-7--7-7--4-4--4-4--4-4--4-4-xxxx------------------------------|-
-|-5-5--5-5--5-5--5-5--2-2--2-2--2-2--2-2-xxxx------------------------------|-
-|--------------------------------------------------------------------------|-
                                                                              

-|--------------------------------------------------------------------------|-
-|--------------------------------------------------------------------------|-
-|-7-7--7-7--7-7--7-7--4-4--4-4--4-4--4-------------------------------------|-
-|-7-7--7-7--7-7--7-7--4-4--4-4--4-4--4-------------------------------------|-
-|-5-5--5-5--5-5--5-5--2-2--2-2--2-2--2-------------------------------------|-
-|--------------------------------------------------------------------------|-
                                                                              
Prechorus:
-|--------------------------------------------------------------------------|-
-|--------------------------------------------------------------------------|-
-|------------------------7-7--7-7--7-7--7----------------------------------|-
-|-5-5-5-5-5-5-5-5-5-5-5--7-7--7-7--7-7--7----------------------------------|-
-|-5-5-5-5-5-5-5-5-5-5-5--5-5--5-5--5-5--5----------------------------------|-
-|-3-3-3-3-3-3-3-3-3-3-3----------------------------------------------------|-
                                                                              

Chorus:

Guitar 1:
-|--------------------------------------------------------------------------|-
-|--------------------------------------------------------------------------|-
-|-7-7-7-7-7-7-7-7-7-7-7--4-4-4-4-4-4-4-4-4-4-4-----------------------------|-
-|-7-7-7-7-7-7-7-7-7-7-7--4-4-4-4-4-4-4-4-4-4-4-----------------------------|-
-|-5-5-5-5-5-5-5-5-5-5-5--2-2-2-2-2-2-2-2-2-2-2-----------------------------|-
-|--------------------------------------------------------------------------|-
                                                                              
Guitar 2:
-|--------------------------------------------------------------------------|-
-|--------------------------------------------------------------------------|-
-|-7-7-7-7-7-7-7-7-7-7-7--4-4-4-4-4-4-4-4-7/9/11----------------------------|-
-|-7-7-7-7-7-7-7-7-7-7-7--4-4-4-4-4-4-4-4-----------------------------------|-
-|-5-5-5-5-5-5-5-5-5-5-5--2-2-2-2-2-2-2-2-5/7/-9----------------------------|-
-|--------------------------------------------------------------------------|-
                                                                              
then both guitars play this:
-|--------------------------------------------------------------------------|-
-|--------------------------------------------------------------------------|-
-|-7-7-7-7-7-7-7-7-7-7-7--4-4-4-4-4-4-4-4-4-xxxx----------------------------|-
-|-7-7-7-7-7-7-7-7-7-7-7--4-4-4-4-4-4-4-4-4-xxxx----------------------------|-
-|-5-5-5-5-5-5-5-5-5-5-5--2-2-2-2-2-2-2-2-2-xxxx----------------------------|-
-|--------------------------------------------------------------------------|-
                                                                              
and then this:
-|--------------------------------------------------------------------------|-
-|--------------------------------------------------------------------------|-
-|--------------7-7-7-7-7-7--4-4-4-4-4-4----------------------------7-------|-
-|-5-5-5-5-5-5--7-7-7-7-7-7--4-4-4-4-4-4--5-5-5-5-5-5--7-7-7-7-7-7--7-------|-
-|-5-5-5-5-5-5--5-5-5-5-5-5--2-2-2-2-2-2--5-5-5-5-5-5--7-7-7-7-7-7--5-------|-
-|-3-3-3-3-3-3----------------------------3-3-3-3-3-3--5-5-5-5-5-5----------|-
                                                                              
then this:
-|--------------------------------------------------------------------------|-
-|--------------------------------------------------------------------------|-
-|-7-7\--7-7\--7-7\--7-7\--6--5--4--------------------------------------|-
-|-7-7\--7-7\--7-7\--7-7\--6--5--4--------------------------------------|-
-|-5-5\--5-5\--5-5\--5-5\--4--3--2--------------------------------------|-
-|--------------------------------------------------------------------------|-
                               ..P.M..                                        

Verse 2: (same as verse)


Prechorus 2:
-|--------------------------------------------------------------------------|-
-|--------------------------------------------------------------------------|-
-|--------------7-7-7-7-7-7--4-4-4-4-4-4----------------------------7-------|-
-|-5-5-5-5-5-5--7-7-7-7-7-7--4-4-4-4-4-4--5-5-5-5-5-5--7-7-7-7-7-7--7-------|-
-|-5-5-5-5-5-5--5-5-5-5-5-5--2-2-2-2-2-2--5-5-5-5-5-5--7-7-7-7-7-7--5-------|-
-|-3-3-3-3-3-3----------------------------3-3-3-3-3-3--5-5-5-5-5-5----------|-


Chorus 2:
-|--------------------------------------------------------------------------|-
-|--------------------------------------------------------------------------|-
-|-7-7-7-7-7-7-7-7-7-7-7--4-4-4-4-4-4-4-4-4-4-4-----------------------------|-
-|-7-7-7-7-7-7-7-7-7-7-7--4-4-4-4-4-4-4-4-4-4-4-----------------------------|-
-|-5-5-5-5-5-5-5-5-5-5-5--2-2-2-2-2-2-2-2-2-2-2-----------------------------|-
-|--------------------------------------------------------------------------|-
                                                                              
-|--------------------------------------------------------------------------|-
-|--------------------------------------------------------------------------|-
-|-7-7-7-7-7-7-7-7-7-7-7--4-4-4-4-4-4-4-4-4-xxxx----------------------------|-
-|-7-7-7-7-7-7-7-7-7-7-7--4-4-4-4-4-4-4-4-4-xxxx----------------------------|-
-|-5-5-5-5-5-5-5-5-5-5-5--2-2-2-2-2-2-2-2-2-xxxx----------------------------|-
-|--------------------------------------------------------------------------|-
                                                                              
-|--------------------------------------------------------------------------|-
-|--------------------------------------------------------------------------|-
-|--------------7-7-7-7-7-7--4-4-4-4-4-4----------------------------7-------|-
-|-5-5-5-5-5-5--7-7-7-7-7-7--4-4-4-4-4-4--5-5-5-5-5-5--7-7-7-7-7-7--7-------|-
-|-5-5-5-5-5-5--5-5-5-5-5-5--2-2-2-2-2-2--5-5-5-5-5-5--7-7-7-7-7-7--5-------|-
-|-3-3-3-3-3-3----------------------------3-3-3-3-3-3--5-5-5-5-5-5----------|-
                                                                              
-|--------------------------------------------------------------------------|-
-|--------------------------------------------------------------------------|-
-|-7-7------7-7------7-7------7-7------6--5--4------------------------------|-
-|-7-7------7-7------7-7------7-7------6--5--4------------------------------|-
-|-5-5------5-5------5-5------5-5------4--3--2------------------------------|-
-|--------------------------------------------------------------------------|-
       let       let      let      let ..P.M..
      ring      ring     ring     ring        
            

comments powered by Disqus
↑ Back to top | Fenix Tx Tabs for Threesome. Lyrics for acoustic guitar and electric guitar. Tablatures and chords are parodies/interpretations of the original songs. You may use it for private study, scholarship, research or language learning purposes only