» » »

Fenix Tx, Something Bad Is Gonna Happen Tabs (ver.2)

Artists:  A B C D E F G H I J K L M N O P Q R S T U V W X Y Z # 

Something Bad Is Gonna Happen Tabs (ver.2)

Fenix Tx Tabs
 Rating:
4/5 (4 votes)
Something Bad Is Gonna Happen lessons Tabs too difficult? Try these video lessons and learn fast
                - this song is a dusy here.
DEJACK VON RICTOR

.Half Step Down Tuning. 

Intro.: 
Guitar.1: 
--------0-------------0------------ 
--------0-------------0------------ 
----------------------------------- 
-2-------------2-------------\\\\-- 
-2-------------2-------------\\\\-- 
-0-------------0-------------\\\\-- 

Guitar.2: 
----------------------------------- 
----------------------------------- 
----------------------------------- 
-2-------------2------\\\\\\\\\\\-- 
-2-------------2------\\\\\\\\\\\-- 
-0-------------0------\\\\\\\\\\\-- 

Guitar.1: (x2) 
Guitar.2: (x4) 
-------------------------------- 
-------------------------------- 
-------------------------------- 
-2-2-5---5/7\5--x3--8-8-8-8-8-8- 
-2-2-5---5/7\5------8-8-8-8-8-8- 
-0-0-3-0-3/5\3------6-6-6-6-6-6- 

Guitar 1 plays this after played through the part above 2 times: 
-----------------------------------12----12h14h12------15~-15~-15~--12-------- 
----5--5h7h5--x3--8~-8~-7----//14~~---14----------x3-------------------14----- 
-7~~-7--------------------7--------------------------------------------------- 

then both guitars play this: 
-------------------- 
-------------------- 
-------------------- 
-3-3-2--2--2--2--2-- 
-3-3-2--2--2--2--2-- 
-1-1-0--0--0--0--0-- 

Verse 1: 
------------------------- 
------------------------- 
------------------------- 
-3-3-2--3--3-3-2--3-3-2--x4 
-3-3-2--3--3-3-2--3-3-2-- 
-1-1-0--1--1-1-0--1-1-0-- 

---------------------------------- 
---------------------------------- 
---------------------4-4-4-4-4-4-- 
-3-3-2--let---x4-----x-x-x-x-x-x-- 
-3-3-2- ring---------2-2-2-2-2-2-- 
-1-1-0---------------------------- 

Chorus 1: (x4) 
(Same as Into) 

Verse 2: 
--------------------------- 
--------------------------- 
--------------------------- 
-3-3-2--3--3-3-2--3-3-2----x4 
-3-3-2--3--3-3-2--3-3-2---- 
-1-1-0--1--1-1-0--1-1-0---- 

------------------------- 
------------------------- 
------------------------- 
-3-3-2--3--3-3-2--3-3-2--x4 
-3-3-2--3--3-3-2--3-3-2-- 
-1-1-0--1--1-1-0--1-1-0-- 
......palm mute......... 

---------------------------------- 
---------------------------------- 
---------------------4-4-4-4-4-4-- 
-3-3-2--let---x4-----x-x-x-x-x-x-- 
-3-3-2- ring---------2-2-2-2-2-2-- 
-1-1-0---------------------------- 

Chorus 2: (x4) 
(Same as Intro) 

Solo: 
-20-20--19-19--18-18--17-17--------------------------------------------------- 
-----------------------------18-18--17-17--16-16--15-15----------------------- 
---------------------------------------------------------16-16--15-15--14-14-- 

-13-13--14b--12-12------------------12----------------------12---------------- 
--------------------14-14b--12--14------14--14-14b--12--14------14--14-14b---- 

-----------------------------12b-12b-12b---------------------------------- 
-----------------12------15----------------------------------------------- 
---------12----------14-------------------14-14-13--14-14-13--14-14-13---- 
-12--14------14----------------------------------------------------------- 

-----------------------------------13-13-12--13-13-12--13-13-12----------- 
-14-14-13--14-14-13--14-14-13--------------------------------------------- 

-12-12-12-12-12-12-12-12-12-12-12\\\\\\\\\-- 
-------------------------------------------- 
-------------------------------------------- 
-------------------------------------------- 
-------------------------------------------- 
-------------------------------------------- 

Breakdown: 
Guitar 2: 
-------------------------------- 
-------------------------------- 
-------------------------------- 
-2-2-5---5/7\5---2-2-5-0-5/7\5-- 
-2-2-5---5/7\5---2-2-5-0-5/7\5-- 
-0-0-3-0-3/5\3---0-0-3-0-3/5\3-- 

Guitar 1: 
---------------------------- 
---------------------------- 
---------------------------- 
-2-------------2------------ 
-2-------------2------------ 
-0-------------0------------ 

Chorus 3: (x4) 
(Same as Intro) 
Guitar 1: (x2) 
Guitar 2: (x4) 
(Same as Intro) 

Guitar 1 plays the Intro SOLO 

Outro: 
-------------------- 
-------------------- 
-------------------- 
-3-3-2--2--2--2--2-- 
-3-3-2--2--2--2--2-- 
-1-1-0--0--0--0--0-- 

-------------------- 
-------------------- 
-------------------- 
-3-3-2--let--------- 
-3-3-2- ring-------- 
-1-1-0--------------
            
Submit corrections

comments powered by Disqus
↑ Back to top | Fenix Tx Tabs for Something Bad Is Gonna Happen. Lyrics for acoustic guitar and electric guitar. Tablatures and chords are parodies/interpretations of the original songs. You may use it for private study, scholarship, research or language learning purposes only