>
 >
El Borracho

El Borracho Guitar Tabs

Fenix Tx - El Borracho chords, tabs, tablatures, lyrics

Guitar lessons | Add/correct | Request | Top 50 tabs Artists:  A B C D E F G H I J K L M N O P Q R S T U V W X Y Z 0-9

El Borracho Guitar Tabs – Fenix Tx

CD, Sheet music, Poster

Do you like El Borracho? Share with your friends now
Tabs
Intro Guitar 1:
E|---------------------------------------------------------|
B|---------------------------------------------------------|
G|---------------------------------------------------------|
D|-----3---3---1---1---------------------------------------|
A|---4---4---2---2-----4---4---4---4-----------------------|
E|-------------------2---2---2---2-------------------------|

E|---------------------------------------------------------|
B|---------------------------------------------------------|
G|---------------------------------------------------------|
D|-----3---3---1---1---1---1-------------------------------|
A|---4---4---2---2---1---1-----4---4-----------------------|
E|---------------------------2---2-------------------------|

E|---------------------------------------------------------|
B|---------------------------------------------------------|
G|---------------------------------------------------------|
D|-----3---3-------------1---1-----------------------------|
A|---4---4-----4---4---2---2-----4---4---------------------|
E|-----------6---6-------------2---2-----------------------|

E|---------------------------------------------------------|
B|---------------------------------------------------------|
G|---------------------------------------------------------|
D|-----3---3---1---1---1---1-------------------------------|
A|---4---4---2---2---2---2-----4---4-----------------------|
E|---------------------------2---2-------------------------|

E|---------------------------------------------------------|
B|---------------------------------------------------------|
G|---------------------------------------------------------|
D|-----3---3---1---1---1---1-------------------------------|
A|---4---4---2---2---2---2-----4---4-----------------------|
E|---------------------------2---2-------------------------|

Intro Guitar 2 (played at the same time as Guitar 1):
E|---------------------------------------------------------|
B|---------------------------------------------------------|
G|---6-----------------------------------------------------|
D|---6-----------------------------------------------------|
A|---4-----------------------------------------------------|
E|---------------------------------------------------------|

E|---------------------------------------------------------|
B|---------------------------------------------------------|
G|---------------------------------------------------------|
D|---------------------------------------------------------|
A|---------------------------------------------------------|
E|---------------------------------------------------------|

E|---------------------------------------------------------|
B|---------------------------------------------------------|
G|---6---------------9-------8-----------------------------|
D|---6---------------9-------8-----------------------------|
A|---4---------------7-------6-----------------------------|
E|---------------------------------------------------------|

E|---------------------------------------------------------|
B|---------------------------------------------------------|
G|---6---------------9-------8-----------------------------|
D|---6---------------9-------8-----------------------------|
A|---4---------------7-------6-----------------------------|
E|---------------------------------------------------------|

Verse 1 Guitar 1:
E|---------------------------------------------------------|
B|---------------------------------------------------------|
G|---------------------------------------------------------|
D|-----3---3---1---1---1---1-------------------------------|
A|---4---4---2---2---2---2-----4---4-----------------------|
E|---------------------------2---2-------------------------|
         Tonight I'm yours 

E|---------------------------------------------------------|
B|---------------------------------------------------------|
G|---------------------------------------------------------|
D|-----3---3---1---1---1---1-------------------------------|
A|---4---4---2---2---2---2-----4---4-----------------------|
E|---------------------------2---2-------------------------|
    completely sharing you with pain

E|---------------------------------------------------------|
B|---------------------------------------------------------|
G|---------------------------------------------------------|
D|-----3---3---1---1---1---1-------------------------------|
A|---4---4---2---2---2---2-----4---4-----------------------|
E|---------------------------2---2-------------------------|
     Guilt and remorse come with me

E|---------------------------------------------------------|
B|---------------------------------------------------------|
G|---------------------------------------------------------|
D|-----3---3---1---1---1---1-------------------------------|
A|---4---4---2---2---2---2-----4---4-----------------------|
E|---------------------------2---2-------------------------|
     They're dying to play

Verse Bridge Guitar 1:
E|---------------------------------------------------------|
B|---------------------------------------------------------|
G|---------------------------------------------------------|
D|---------------------------------------------------------|
A|-----4---4---4---4---2---2---2---2-----------------------|
E|---2---2---2---2---0---0---0---0-------------------------|
     Take me down with you

E|---------------------------------------------------------|
B|---------------------------------------------------------|
G|---------------------------------------------------------|
D|-----3---3---1---1---------------------------------------|
A|---4---4---2---2-----4---4---4---4-----------------------|
E|-------------------2---2---2---2-------------------------|

E|---------------------------------------------------------|
B|---------------------------------------------------------|
G|---------------------------------------------------------|
D|-----3---3---1---1---1---1-------------------------------|
A|---4---4---2---2---2---2-----4---4-----------------------|
E|---------------------------2---2-------------------------|

Verse Bridge Guitar 2:
E|---------------------------------------------------------|
B|---------------------------------------------------------|
G|---9---8--9--8---5----6----------------------------------|
D|---9---8--9--8---5----6----------------------------------|
A|---7---6--7--6---3----4----------------------------------|
E|---------------------------------------------------------|
     Take me down with you

E|---------------------------------------------------------|
B|---------------------------------------------------------|
G|---9--11--12---------------------------------------------|
D|---9--11--12---------------------------------------------|
A|---7---9--10---------------------------------------------|
E|---------------------------------------------------------|

E|---------------------------------------------------------|
B|---------------------------------------------------------|
G|---8---5----6--------------------------------------------|
D|---8---5----6--------------------------------------------|
A|---6---3----4--------------------------------------------|
E|---------------------------------------------------------|

Verse 2 Guitar 1:
E|---------------------------------------------------------|
B|---------------------------------------------------------|
G|---------------------------------------------------------|
D|-----3---3---1---1---------------------------------------|
A|---4---4---2---2-----4---4---4---4-----------------------|
E|-------------------2---2---2---2-------------------------|
     This feels so far from perfect I'll try and pretend 

E|---------------------------------------------------------|
B|---------------------------------------------------------|
G|---------------------------------------------------------|
D|-----3---3---1---1---1---1-------------------------------|
A|---4---4---2---2---2---2-----4---4-----------------------|
E|---------------------------2---2-------------------------|
     this is my heart Be careful it's so hard to mend

Bridge:
E|---------------------------------------------------------|
B|---------------------------------------------------------|
G|---9---8--9--8---5----6--10--9------8--9--5--------------|
D|---9---8--9--8---5----6--10--9------8--9--5--------------|
A|---7---6--7--6---3----4---8--7------6--7--3--------------|
E|---------------------------------------------------------|
     I'm down for whatever if you're down for the same

Chorus:
E|---------------------------------------------------------|
B|---------------------------------------------------------|
G|---6-6---------------4-4---6-6---------------4-4--5------|
D|---6-6---7-7---4-4---4-4---6-6---7-7---4-4---4-4--5------|
A|---4-4---7-7---4-4---2-2---4-4---7-7---4-4---2-2--3------|
E|---------5-5---2-2---------------5-5---2-2---------------|
take me take me take me anywhere you wanna go she'll never know 

E|---------------------------------------------------------|
B|---------------------------------------------------------|
G|---6-6---------------4-4--5--6-6---------------4-4--5----|
D|---6-6---7-7---4-4---4-4--5--6-6---7-7---4-4---4-4--5----|
A|---4-4---7-7---4-4---2-2--3--4-4---7-7---4-4---2-2--3----|
E|---------5-5---2-2-----------------5-5---2-2-------------|
Take me take me tell me everything that I wanna know then I'll let you go down with you

Chorus to Verse Bridge Guitar 1:
E|---------------------------------------------------------|
B|---------------------------------------------------------|
G|---------------------------------------------------------|
D|-----3---3---1---1---------------------------------------|
A|---4---4---2---2-----4---4---4---4-----------------------|
E|-------------------2---2---2---2-------------------------|

E|---------------------------------------------------------|
B|---------------------------------------------------------|
G|---------------------------------------------------------|
D|-----3---3---1---1---1---1-------------------------------|
A|---4---4---2---2---1---1-----4---4-----------------------|
E|---------------------------2---2-------------------------|

Chorus to Verse Bridge Guitar 2:
E|---------------------------------------------------------|
B|---------------------------------------------------------|
G|---6---------------9-------8-----------------------------|
D|---6---------------9-------8-----------------------------|
A|---4---------------7-------6-----------------------------|
E|---------------------------------------------------------|

E|---------------------------------------------------------|
B|---------------------------------------------------------|
G|---6---------------9-------8-----------------------------|
D|---6---------------9-------8-----------------------------|
A|---4---------------7-------6-----------------------------|
E|---------------------------------------------------------|

Verse 3 Guitar 1:
E|---------------------------------------------------------|
B|---------------------------------------------------------|
G|---------------------------------------------------------|
D|-----3---3---1---1---------------------------------------|
A|---4---4---2---2-----4---4---4---4-----------------------|
E|-------------------2---2---2---2-------------------------|
     I can't go on pretending you don't know her name 

E|---------------------------------------------------------|
B|---------------------------------------------------------|
G|---------------------------------------------------------|
D|-----3---3---1---1---1---1-------------------------------|
A|---4---4---2---2---2---2-----4---4-----------------------|
E|---------------------------2---2-------------------------|
   We've gone too far to turn back now I might as well stay

Verse 3 Guitar 2:
E|---------------------------------------------------------|
B|---------------------4-5---------------------------------|
G|---6-------4-------6-----6--4-6--------------------------|
D|--------------------------------6------------------------|
A|---------------------------------------------------------|
E|---------------------------------------------------------|

E|---------------------------------------------------------|
B|---------------------4-5---------------------------------|
G|--6--------4-------6-----6-4-6---------------------------|
D|--------------------------------7-6----------------------|
A|---------------------------------------------------------|
E|---------------------------------------------------------|

Bridge:
E|---------------------------------------------------------|
B|---------------------------------------------------------|
G|---9---8--9--8---5----6--10--9------8--9--5--------------|
D|---9---8--9--8---5----6--10--9------8--9--5--------------|
A|---7---6--7--6---3----4---8--7------6--7--3--------------|
E|---------------------------------------------------------|
     I'm down for whatever if you're down for the same

Chorus:
E|---------------------------------------------------------|
B|---------------------------------------------------------|
G|---6-6---------------4-4---6-6---------------4-4--5------|
D|---6-6---7-7---4-4---4-4---6-6---7-7---4-4---4-4--5------|
A|---4-4---7-7---4-4---2-2---4-4---7-7---4-4---2-2--3------|
E|---------5-5---2-2---------------5-5---2-2---------------|
take me take me take me anywhere you wanna go she'll never know 

E|---------------------------------------------------------|
B|---------------------------------------------------------|
G|---6-6---------------4-4--5--6-6---------------4-4-------|
D|---6-6---7-7---4-4---4-4--5--6-6---7-7---4-4---4-4-------|
A|---4-4---7-7---4-4---2-2--3--4-4---7-7---4-4---2-2-------|
E|---------5-5---2-2-----------------5-5---2-2-------------|
Take me take me tell me everything that I wanna know

E|---------------------------------------------------------|
B|---------------------------------------------------------|
G|-----------------------------4-4-4-4---------------------|
D|---7-7-7-7-7-7-7-7--4-4-4-4--4-4-4-4---------------------|
A|---7-7-7-7-7-7-7-7--2-2-2-2--2-2-2-2---------------------|
E|---5-5-5-5-5-5-5-5--2-2-2-2------------------------------|
     Lemme go I think I'll wait too long I wanna know 


E|---------------------------------------------------------|
B|---------------------------------------------------------|
G|---------------------------------------------------------|
D|---7-7-7-7--4-4-4-4-4-4-4-4------------------------------|
A|---7-7-7-7--2-2-2-2-2-2-2-2------------------------------|
E|---5-5-5-5--2-2-2-2-2-2-2-2------------------------------|
     Let me go just take me down with you

E|---------------------------------------------------------|
B|---------------------------------------------------------|
G|---6-6-6-6--------------------4-4-4-4--------------------|
D|---6-6-6-6--7-7-7-7--4-4-4-4--4-4-4-4--------------------|
A|---4-4-4-4--7-7-7-7--4-4-4-4--2-2-2-2--------------------|
E|------------5-5-5-5--2-2-2-2-----------------------------|
     Take me take me take me down with you 

E|---------------------------------------------------------|
B|---------------------------------------------------------|
G|---6-6-6-6--------------------4-4-4-4--------------------|
D|---6-6-6-6--7-7-7-7--4-4-4-4--4-4-4-4--------------------|
A|---4-4-4-4--7-7-7-7--4-4-4-4--2-2-2-2--------------------|
E|------------5-5-5-5--2-2-2-2-----------------------------|
     Take me take me take me down with you

E|---------------------------------------------------------|
B|---------------------------------------------------------|
G|---6-6-6-6--------------------4-4-4-4--------------------|
D|---6-6-6-6--7-7-7-7--4-4-4-4--4-4-4-4--------------------|
A|---4-4-4-4--7-7-7-7--4-4-4-4--2-2-2-2--------------------|
E|------------5-5-5-5--2-2-2-2-----------------------------|
     Take me take me take me down with you

Ending Guitar 1:
E|---------------------------------------------------------|
B|---------------------------------------------------------|
G|---6-6-6-6-6-6-6-6---------------------------------------|
D|---6-6-6-6-6-6-6-6--7-7-7-7-7-7-7-7--4-4-4-4-4-4-4-4-----|
A|---4-4-4-4-4-4-4-4--7-7-7-7-7-7-7-7--4-4-4-4-4-4-4-4-----|
E|--------------------5-5-5-5-5-5-5-5--2-2-2-2-2-2-2-2-----|

E|---------------------------------------------------------|
B|---------------------------------------------------------|
G|---4-4-4-4-4-4-4-4--6-6-6-6-6-6-6-6----------------------|
D|---4-4-4-4-4-4-4-4--6-6-6-6-6-6-6-6--7-7-7-7-7-7-7-7-----|
A|---2-2-2-2-2-2-2-2--4-4-4-4-4-4-4-4--7-7-7-7-7-7-7-7-----|
E|-------------------------------------5-5-5-5-5-5-5-5-----|

E|---------------------------------------------------------|
B|---------------------------------------------------------|
G|--------------------4-4-4-4-4-4-4-4--6-6-6-6-6-6-6-6-----|
D|---4-4-4-4-4-4-4-4--4-4-4-4-4-4-4-4--6-6-6-6-6-6-6-6-----|
A|---4-4-4-4-4-4-4-4--2-2-2-2-2-2-2-2--4-4-4-4-4-4-4-4-----|
E|---2-2-2-2-2-2-2-2---------------------------------------|

E|---------------------------------------------------------|
B|---------------------------------------------------------|
G|-------------------------------------4-4---5-------------|
D|---7-7-7-7-7-7-7-7--4-4-4-4-4-4-4-4--4-4---5-------------|
A|---7-7-7-7-7-7-7-7--4-4-4-4-4-4-4-4--2-2---3-------------|
E|---5-5-5-5-5-5-5-5--2-2-2-2-2-2-2-2----------------------|

Ending Guitar 2:
E|---------------------------------------------------------|
B|---------------------------------------------------------|
G|---6-6-6-6-6-6-6-6--6-6-6-6-6-6-6-6--6-6-6-6-6-6-6-6-----|
D|---6-6-6-6-6-6-6-6--6-6-6-6-6-6-6-6--6-6-6-6-6-6-6-6-----|
A|---4-4-4-4-4-4-4-4--4-4-4-4-4-4-4-4--4-4-4-4-4-4-4-4-----|
E|---------------------------------------------------------|

E|---------------------------------------------------------|
B|---------------------------------------------------------|
G|---6-6-6-6-6-6-6-6--6-6-6-6-6-6-6-6--6-6-6-6-6-6-6-6-----|
D|---6-6-6-6-6-6-6-6--6-6-6-6-6-6-6-6--6-6-6-6-6-6-6-6-----|
A|---4-4-4-4-4-4-4-4--4-4-4-4-4-4-4-4--4-4-4-4-4-4-4-4-----|
E|---------------------------------------------------------|

E|---------------------------------------------------------|
B|---------------------------------------------------------|
G|---6-6-6-6-6-6-6-6--6-6-6-6-6-6-6-6--6-6-6-6-6-6-6-6-----|
D|---6-6-6-6-6-6-6-6--6-6-6-6-6-6-6-6--6-6-6-6-6-6-6-6-----|
A|---4-4-4-4-4-4-4-4--4-4-4-4-4-4-4-4--4-4-4-4-4-4-4-4-----|
E|---------------------------------------------------------|

E|---------------------------------------------------------|
B|---------------------------------------------------------|
G|---6-6-6-6-6-6-6-6--6-6-6-6-6-6-6-6--4-4---5-------------|
D|---6-6-6-6-6-6-6-6--6-6-6-6-6-6-6-6--4-4---5-------------|
A|---4-4-4-4-4-4-4-4--4-4-4-4-4-4-4-4--2-2---3-------------|
E|---------------------------------------------------------|





Comments


Popular Fenix Tx tabs & chords
Beating A Dead Horse Bass Tabs
No Lie Bass Tabs
A Song For Everyone Tabs
Abba Zabba Tabs
Ben Tabs
Jolly Green Dumbass 2 Tabs
Pasture Of Muppets Tabs
Phoebe Cates 1 Tabs
Speechless Tabs
Tearjerker Ukulele


Song lyrics



↑ Back to top | Tablatures and chords are parodies/interpretations of the original songs. You may use it for private study, scholarship, research or language learning purposes only
© 2014 AZChords.com Contact us | Privacy policy | DMCA | Add/correct tabs | Request tabs | Top 50 tabs