» » »

Fenix Tx, El Borracho Bass tabs (ver.1)

Artists:  A B C D E F G H I J K L M N O P Q R S T U V W X Y Z # 

El Borracho Bass tabs (ver.1)

Fenix Tx Tabs
 Rating:
4/5 (4 votes)
El Borracho  lessons Tabs too difficult? Try these video lessons and learn fast
1
                (1)
This song was pretty hard to get at first but I think if your good enough
you'll be able to play it perfect.
~ - let note ring
     -Figured out and Submitted by Dejackamo Von Rictor from Barstow CA

Main Riff (the intro and other parts are these notes , just played different)
G----10---10---6---6----8---8---3---3--
D--------------------------------------
A--------------------------------------
E--9----9----5---5----7---7---2---2----

Chorus(soory , I couldn't get the pre-chorus but when I do I'll modify this)
G-----------------------------
D-------------2-4-------------
A-4-4---0-0~-------------2-2--
E------------------2-2--------

G----------------------------
D----------------------------
A-4-4---0-0-----------2-2-3--
E------------0~--2-2---------

"Wanna go , Let me go"
G--------------------------------------
D-----6--------4---------4--------4----
A-4-4---4--4-4---4---2-2---2--2-2---2--
E--------------------------------------

Ending
G------------22222-------33333-------44444-----
D----------------------------------------------
A-444444-2h4--------2h4----------2h4-----------
E----------------------------------------------

G------------------------
D------------------------
A-4444--0000-------2222--
E------------2222--------
  This may not be perfect but it's all I could get for now. 
 "Bang blondes!"
            
Submit corrections

comments powered by Disqus
↑ Back to top | Fenix Tx Bass for El Borracho. Lyrics for acoustic guitar and electric guitar. 1 Tablatures and chords are parodies/interpretations of the original songs. You may use it for private study, scholarship, research or language learning purposes only