» » »

Fences, The Same Tattoos Tabs (ver.1)

Artists:  A B C D E F G H I J K L M N O P Q R S T U V W X Y Z # 

The Same Tattoos Tabs (ver.1)

Fences Tabs
 Rating:
4.2/5 (5 votes)
The Same Tattoos lessons Tabs too difficult? Try these video lessons and learn fast
                Rate and Comment if you like!

Tuning: D A D G B E (Capo 1st fret)


Intro/Main Riff

e |-----------------------------------|
B |-----8----8----8-----8------8------|
G |-----0----0----0-----0------0------|
D |-----0----0----0-----0--0---0------|
A |--11---10--------------------------|         
D |------------10-----8-----10--------|


Verse 1

e |--9---x--------------|
B |--8---8----8---------|
G |--10--8----0---------|
D |--0--------x---------|
A |--0--------11--------|       
D |--x---x--------------|

I was born in the same town as you
Hell, I even think we have the same tattoos

Main Riff

e |--9---x--------------|
B |--8---8----8---------|
G |--10--8----0---------|
D |--0--------x---------|
A |--0--------11--------|       
D |--x---x--------------|

My mother hates it when I smile 
And she sees you coming through me 
Like a sunshine through thin glass

Chorus

e |--9---x--------------|
B |--8---8----8---------|
G |--10--8----0---------|
D |--0--------x---------|
A |--00-------11--------|       
D |--x---x--------------|

It's not like you were really gone gone gone gone
But you were
And I never felt love 
Main Riff

Verse 2

e |--9---x--------------|
B |--8---8----8---------|
G |--10--8----0---------|
D |--0--------x---------|
A |--0--------11--------|       
D |--x---x--------------|

My uncle gave me on the day that I turned thirteen
A black box it said ‘Gillette’ rusted and scratched
And it was full of memories and memorabilia
And a necklace with the saints I wore in class

Chorus (x4)

Outro/Main Riff
            
Submit corrections

comments powered by Disqus
↑ Back to top | Fences Tabs for The Same Tattoos. Lyrics for acoustic guitar and electric guitar. Tablatures and chords are parodies/interpretations of the original songs. You may use it for private study, scholarship, research or language learning purposes only