>
 >
Pegao 2

Pegao 2 Guitar Tabs

Feliciano Jose - Pegao 2 chords, tabs, tablatures, lyrics

Guitar lessons | Add/correct | Request | Top 50 tabs Artists:  A B C D E F G H I J K L M N O P Q R S T U V W X Y Z 0-9

Pegao 2 Guitar Tabs – Feliciano Jose

CD, Sheet music, Poster

Do you like Pegao 2? Share with your friends now
TabsTabs v2Tabs v3
note: these tabs are for the original version
any version of it on the web is made by a band or something else, so there will be more 
than a few changes. enjoy

           --- opening ---
E 022100
F6 100200
Am 01220x
E7 002430, 0xx434
Dm xx0231
Bb x13331
G#0 433433
Dm9 xx0230
B7/F# 201200
A7/C# x4x020
D#7/D xx0233
Emsus4 002200

     play slowly...
    Am         E7      Am                Dm
e |-0-----0----------|-----0-------------5^6^5-----5--|
b |-----1----3-----3-|----1---------0^1----------6----|
g |---2----------4---|---2---------2-----------7------|
d |------------2-----|--2---------2-------------------|
a |-0----------------|-0-----0^2^3-------0------------|
E |----------0-------|--------------------------------|


    A7       Dm                   E        G#0
e |-3-----3-----1-----------0^1-|-0-----0----------|
b |-----5------3----------3-----|-----0----3-----3-|
g |---6-------2---------2-------|---1----------4---|
d |----------0----0^2^3---------|------------3-----|
a |-0---------------------------|------------------|
E |-----------------------------|-0--------4-------|

    Am            Am/G      B7/F#    F6       Emsus4 E7
e |-----0--0--------------|--------------------------------|
b |----1-----1--------1---|-0-----0--0-----0-----0------0--|
g |---2--------2------2---|-----2--------2------2------1---|
d |--2--------------2---2-|---1--------0-------2------2----|
a |-0---------------------|--------------------------------|
E |---------------3-------|-0--------1--------0------0-----|

        {4 knocks}

           --- first part ---
    Am        E7      Am         A7/C#     Dm       D#7/D    
e |-0-----0---------|---------0--------0-|-5-----5--3---3-|
b |-----1-----3---3-|-1-----1--------2---|-----6------2---|
g |---2---------1---|-----2--------0-----|---7------------|
d |-----------------|--------------------|-0--------0-----|
a |-0---------------|---0--------4-------|----------------|
E |-----------0-----|--------------------|----------------|

    Dm         Dm9       E        G#0     Am         Am9/G
e |-1-------1--------0-|-0-----0--------|--------------------|
b |-------3--------3---|-----0----3-----|-1-------1--------0-|
g |-----2--------2-----|---1----------4-|-------2--------2---|
d |---0--------0-------|------------3---|-----2--------2-----|
a |--------------------|----------------|---0----------------|
E |--------------------|-0--------4-----|------------3-------|

    B7/F#    F6        Emsus4   E
e |------------------|------------------|
b |-------0--------0-|-------0--------0-|
g |-----2--------2---|-----2--------1---|
d |---1--------0-----|---2--------2-----|
a |------------------|------------------|
E |-2--------1-------|-0--------0-------|

    Am        E7      Am         A7/C#     Dm       D#7/D
e |-0-----0---------|---------0--------0-|-5-----5--3---3-|
b |-----1-----3---3-|-1-----1--------2---|-----6------2---|
g |---2---------1---|-----2--------0-----|---7------------|
d |-----------------|--------------------|-0--------0-----|
a |-0---------------|---0--------4-------|----------------|
E |-----------0-----|--------------------|----------------|

    Dm         Dm9         Bb         Am    E7          Am
e |-1-------1--------0-| |-1-1--1---1--0--|--4-4--4--4--5-|
b |-------3--------3---| |-2-2--2---2--1--|--3-3--3--3--5-|
g |-----2--------2-----| |-2-2--2---2--2--|--4-4--4--4--5-|
d |---0--------0-------| |----------------|---------------|
a |--------------------| |-1-1--1---1--0--|-------------0-|
E |--------------------| |----------------|--0-0--0--0----|

                Am             Am
e |-1^0-------0------0-0-0-0-|-1^0-------0------0-0-0-0-|
b |-----3-1-0---1----1-1-1-1-|-----3-1-0---1----1-1-1-1-|
g |---------------2--2-2-2-2-|---------------2--2-2-2-2-|
d |------------------2-2-2-2-|------------------2-2-2-2-|
a |-0-------0-----0--0-0-0-0-|-0-------0-----0--0-0-0-0-|
E |--------------------------|--------------------------|


           --- second part (play twice) ---
    A        E7      A          A/C#
e |-0-----0--------|---------0--------0-|-5-----4-------4-|
b |-----2----3---3-|-2-----2--------2---|-----2-------2---|
g |---2--------1---|-----2--------2-----|---2-------2-----|
d |----------------|--------------------|-----------------|
a |-0--------------|---0--------4-------|-0-------0-------|
E |----------0-----|--------------------|-----------------|

    D                 B        B7
e |-2-----2-----2---|-7-----7----------|-------------------------|
b |-----3-----------|-----7----9-----9-|-9---7--5--3--0-----5--2-|
g |---2-------2-----|---8----------8---|-----------------1-------|
d |-0-------0-------|------------7-----|-------------------------|
a |-----------------|------------------|-7---5--3--2--------4--3-|
E |-----------------|-7--------7-------|--------------4--0-------|

    A
e |-------------|
b |-2-----------|
g |---2-2---2-2-|
d |---2-2---2-2-|
a |-0-----------|
E |-------------|

           --- and again the first part ---

           --- ending ---
                Am             Am
e |-1^0-------0------0-0-0-0-|-1^0-------0--5-|
b |-----3-1-0---1----1-1-1-1-|-----3-1-0----2-|
g |---------------2--2-2-2-2-|--------------2-|
d |------------------2-2-2-2-|----------------|
a |-0-------0-----0--0-0-0-0-|-0-------0----0-|
E |--------------------------|----------------|

that's it - hoped u liked it. for more information on how to play this - send me
please note that there are NO mistakes here - everything you think is wrong is
just the changes made by the band or whatever... if you still think there's a
mistake E-mail me.





Comments


Popular Feliciano Jose tabs & chords
Feliz Navidad Bass Tabs
Che Sara Chords
Thank God Chords
Che Sara Tabs
Che Sara 1 Tabs
Escandalo Tabs
Feliz Navidad Tabs
Pegao Tabs
Pegao 1 Tabs
Thank God Tabs


Song lyrics



↑ Back to top | Tablatures and chords are parodies/interpretations of the original songs. You may use it for private study, scholarship, research or language learning purposes only
© 2014 AZChords.com Contact us | Privacy policy | DMCA | Add/correct tabs | Request tabs | Top 50 tabs