» » »

Fei Comodo, Emo Rangers Bass tabs (ver.1)

Artists:  A B C D E F G H I J K L M N O P Q R S T U V W X Y Z # 

Emo Rangers Bass tabs (ver.1)

Fei Comodo Tabs
Rating:
0/5 (0 votes)
Emo Rangers lessons Tabs too difficult? Try these video lessons and learn fast
                -------------------------------------------------------------------------------
-------------------------------------------------------------------------------


Tuning: Drop D

Intro

G|------------------------------------------------------------------------|
D|------------------------------------------------------------------------|
A|------------------------------------------------------------------------|
D|-2--------------2-----------------3-3-3---------------------------------|
               [x2]
G|------------------------------------------------------------------------|
D|------------------------------------------------------------------------|
A|------------------------------------------------------------------------|
D|-2-0-0-2-0-0-2-0-0-2-0-0-2/3-3-3--2-0-0-2-0-0-2-0-0-2-0-0-2~-------------|
      [x1]

Solo
G|------------------------------------------------------------------------|
D|------------------------------------------------------------------------|
A|-3-3-3-3-3-3-3-3-5-5-5-5-5-5-5-5-0-0-0-0-0-0-0-0-2-2-2-2-2-2-2-2--------|
D|------------------------------------------------------------------------|

G|------------------------------------------------------------------------|
D|------------------------------------------------------------------------|
A|-3-3-3-3-3-3-3-3-3-3-3-3-3-3-3-3---2~-----------------------------------|
D|------------------------------------------------------------------------|

G|------------------------------------------------------------------------|
D|------------------------------------------------------------------------|
A|-------------------3-3-3-3-3-0-0-0-0-0----------------------------------|
D|-0-2-2-2-2-2-2-2-2------------------------------------------------------|
       [x2]

Chorus
G|------------------------------------------------------------------------|
D|------------------------------------------------------------------------|
A|------------------------------------------------------------------------|
D|-3-3-3-3-3-3-3-3-3-3-3-3-3-3-3-3-3-3-3-3-3-3-3-3-3-3-3-3-5-3-2-2-0--2-2-|



G|------------------------------------------------------------------------|
D|------------------------------------------------------------------------|
A|------------------------------------------------------------------------|
D|-2-2--2-2-2-2-5-5--5-5-5-5-7-7--7-7-7-7-4-4--4-4-4--------------------|

G|------------------------------------------------------------------------|
D|------------------------------------------------------------------------|
A|------------------------------------------------------------------------|
D|-2-2--2-2-2-2-5-5--5-5-5-5-7-7--7-7-7-7-4-------------------------------|

Repeat Chorus.


| /  slide up
| \  slide down
| h  hammer-on
| p  pull-off
| ~  vibrato
| +  harmonic
| x  Mute note
===============================================================================
            

comments powered by Disqus
↑ Back to top | Fei Comodo Bass for Emo Rangers. Lyrics for acoustic guitar and electric guitar. Tablatures and chords are parodies/interpretations of the original songs. You may use it for private study, scholarship, research or language learning purposes only