>
 >
Emo Rangers

Emo Rangers Guitar Tabs

Fei Comodo - Emo Rangers chords, tabs, tablatures, lyrics

Guitar lessons | Add/correct | Request | Top 50 tabs Artists:  A B C D E F G H I J K L M N O P Q R S T U V W X Y Z 0-9

Emo Rangers Guitar Tabs – Fei Comodo

CD, Sheet music, Poster

Do you like Emo Rangers? Share with your friends now
Bass TabsChordsTabsUkulele
Tuning: Drop D

Figure out the Palm Muting... its not that hard.

Intro

Guitar 1

e-----------------------------------------------------|
b-----------------------------------------------------|
g-----------------------------------------------------|
d-9--9--9--9---9/10-10-10-10---9--9--9--9-/10-10-10---|
a-7--7--7--7---7/8--8--8--8----7--7--7--7/-8--8--8----|
d--00-00-00---------------------00-00-00--------------|

e-----------------------------------------------------------------------------|
b-----------------------------------------------------------------------------|
g-----------------------------------------------------------------------------|
d-9--9--9--9---9/10-10-10-10---9--9---9---9---10~-----------------------------|
a-7--7--7--7---7/8--8--8--8----7--7---7---7---8~------------------------------|
d--00-00-00-00------------------00--00--00-00-0~------------------------------|

Guitar 2
e--------------------------------------------------|
b--------------------------------------------------|
g--------------------------------------------------|
d--2-------------2-----------------------3--3--3---|
a--2-------------2-----------------------3--3--3---|
d--2-------------2-----------------------3--3--3---|


e--------------------------------------------------------------------|
b--------------------------------------------------------------------|
g--------------------------------------------------------------------|
d-2-0-0-2-0-0-2-0-0-2-0-0-2/3-3-3-3-------2-0-0-2-0-0-2-0-0-2-0-0-2--|
a-2-0-0-2-0-0-2-0-0-2-0-0-2/3-3-3-3-------2-0-0-2-0-0-2-0-0-2-0-0-2--|
d-2-0-0-2-0-0-2-0-0-2-0-0-2/3-3-3-3-------2-0-0-2-0-0-2-0-0-2-0-0-2--|



Solo

Guitar 1
All tapped.
e------------------------------------------------------------------------|
b------------------------------------------------------------------------|
g-17p9h12--17p9h12--17p9h12--17p9h12--19p9h11--19p9h11--19p9h11--19p9h11-|
d------------------------------------------------------------------------|
a------------------------------------------------------------------------|
d------------------------------------------------------------------------|

e------------------------------------------------------------------------|
b------------------------------------------------------------------------|
g-21p9h11--21p9h11--21p9h11--21p9h11--21p9h11--21p9h11--21p9h11--21p9h11-|
d------------------------------------------------------------------------|
a------------------------------------------------------------------------|
d------------------------------------------------------------------------|

e-------------------------------------------------------------------------|
b-------------------------------------------------------------------------|
g-17p9h12--17p9h12--17p9h12--17p9h12--17p9h12--17p9h12--17p9h12--17p9h12--|
d-------------------------------------------------------------------------|
a-------------------------------------------------------------------------|
d-------------------------------------------------------------------------|

Guitar 2

e-----------------------------------------------------------------|
b-----------------------------------------------------------------|
g-5-5-5-5-5-5-5-5-7-7-7-7-7-7-7-7-2-2-2-2-2-2-2-2-4-4-4-4-4-4-4-4-|
d-5-5-5-5-5-5-5-5-7-7-7-7-7-7-7-7-2-2-2-2-2-2-2-2-4-4-4-4-4-4-4-4-|
a-3-3-3-3-3-3-3-3-5-5-5-5-5-5-5-5-0-0-0-0-0-0-0-0-2-2-2-2-2-2-2-2-|
d-----------------------------------------------------------------|


e----------------------------------------|
b----------------------------------------|
g-5-5-5-5-5-5-5-5-5-5-5-5-5-5-5-5--4-----|
d-5-5-5-5-5-5-5-5-5-5-5-5-5-5-5-5--4-----|
a-3-3-3-3-3-3-3-3-3-3-3-3-3-3-3-3--2-----|
d----------------------------------------|


Chorus

Guitar 1

e-----------------------------|
b-----------------------------|
g---9-9-11-11-12-12-11-11-9---| X4
d-0-x-x-x--x--x--x--x--x--x---|
a-0-7-7-9--9--10-10-9--9--7---|
d-0---------------------------|

e-------------------------------------|
b-----| |-----------------------------|
g-10--|x28 |--------------------------|
d-x---| |------------2-2--------------|
a-8---| |------------2-2--------------|
d-----| |--5-3-2-2-0-2-2--------------|


Guitar 2


e---------------------------------------|
b---------------------------------------|
g-------------------5-5-5-5-5-2-2-2-2-2-| X2
d-0-2-2-2-2-2-2-2-2-5-5-5-5-5-2-2-2-2-2-|
a-0-2-2-2-2-2-2-2-2-3-3-3-3-3-0-0-0-0-0-|
d-0-2-2-2-2-2-2-2-2---------------------|

e-----| |---------------------------|
b-----| |---------------------------|
g-----|x28 |------------------------|
d-3---| |------------2-2------------|
a-3---| |------------2-2------------|
d-3---| |--5-3-2-2-0-2-2------------|


Bridge

Guitar 1


e-15------------------|
b----13-12-12h13p12---|
g------------------12-|
d---------------------|
a---------------------|
d---------------------|


e---------------|
b-15-13-12/-----|
g---------------|
d---------------|
a---------------|
d---------------|


Guitar 2


e----------------------------------------------------------------|
b----------------------------------------------------------------|
g----------------------------------------------------------------|
d-2-2--2-2-2-2-5-5--5-5-5-5-7-7--7-7-7-7-4-4--5-5-4--------------|
a-2-2--2-2-2-2-3-3--3-3-3-3-5-5--5-5-5-5-2-2--2-2-2--------------|
d-2-2--2-2-2-2-5-5--5-5-5-5-7-7--7-7-7-7-4-4--4-4-4--------------|


e------------------------------------------------------------------|
b------------------------------------------------------------------|
g------------------------------------------------------14-12-11/---|
d-2-2--2-2-2-2-5-5--5-5-5-5-7-7--7-7-7-7-4-------------------------|
a-2-2--2-2-2-2-3-3--3-3-3-3-5-5--5-5-5-5-2-------------------------|
d-2-2--2-2-2-2-5-5--5-5-5-5-7-7--7-7-7-7-4-------------------------|

Repeat Chorus





Comments


Popular Fei Comodo tabs & chords
Emo Rangers Bass Tabs
Emo Rangers Chords
Break The Ice 1 Tabs
Burn It All Tabs
Burn It All 1 Tabs
Burn It All Intro Tabs
Burn It All Intro 1 Tabs
The Air Is Cold Tonight Tabs
The Cost Of Living Tabs
Emo Rangers Ukulele


Song lyrics



↑ Back to top | Tablatures and chords are parodies/interpretations of the original songs. You may use it for private study, scholarship, research or language learning purposes only
© 2014 AZChords.com Contact us | Privacy policy | DMCA | Add/correct tabs | Request tabs | Top 50 tabs