>
 >
Love It When You Call

Love It When You Call Guitar Tabs

Feeling - Love It When You Call chords, tabs, tablatures, lyrics

Guitar lessons | Add/correct | Request | Top 50 tabs Artists:  A B C D E F G H I J K L M N O P Q R S T U V W X Y Z 0-9

Love It When You Call Guitar Tabs – Feeling

CD, Sheet music, Poster

Do you like Love It When You Call? Share with your friends now
Bass TabsChordsChords v2TabsTabs v2Ukulele
Label:    Island
Tuning:   Standard

**********
*GUITAR 1*
**********

-Intro-
     W                   W                   W                 
E||-------------------|-------------------|-------------------|
B||-------------------|-------------------|-------------------|
G||-------------------|-------------------|-------------------|
D||-------------------|-------------------|-------------------|
A||-------------------|-------------------|-------------------|
E||-------------------|-------------------|-------------------|


  H        E  E  E  E     H        E  E  E  E     H        E  E  E  E   
--------------------0--|--0--------L--------0--|--0--------L--------0--|
--------------3--3--1--|--1--------L--3--3--1--|--1--------L--3--3--1--|
--------------0--0--0--|--0--------L--0--0--2--|--2--------L--0--0--2--|
--------------0--0--2--|--2--------L--0--0--3--|--3--------L--0--0--2--|
--------------2--2--3--|--3--------L--3--3--3--|--3--------L--2--2--0--|
-----------------------|--------------0--0--1--|--1--------L--3--3-----|

                                               -Verse-
  H        E  E  E  E     H        E  E  E  E     Q    Q.     E  E  E   
--0--------L--------0--|--0--------L--------0--|--0-----------0--0--1--|
--1--------L--3--3--1--|--1--------L--3--3--1--|--1-----------1--1--1--|
--2--------L--0--0--2--|--2--------L--0--0--0--|--0-----------0--0--2--|
--2--------L--2--2--3--|--3--------L--0--0--2--|--2-----------2--2--3--|
--0--------L--2--2--3--|--3--------L--2--2--3--|--3-----------3--3--3--|
--------------0--0--1--|--1--------L-----------|--------------0--0--1--|


  Q    Q.     E  E  E     Q    Q.     E  E  E     Q    Q.     E  E  E   
--1-----------3--3--0--|--0-----------0--0--1--|--1-----------------0--|
--1-----------0--0--1--|--1-----------1--1--1--|--1-----------3--3--1--|
--2-----------0--0--2--|--2-----------0--0--2--|--2-----------0--0--0--|
--3-----------0--0--2--|--2-----------2--2--3--|--3-----------0--0--2--|
--3-----------2--2--0--|--0-----------3--3--3--|--3-----------2--2--3--|
--1-----------3--3-----|--------------0--0--1--|--1--------------------|


  Q    Q.     E  E  E     Q    Q.     E  E  E     Q    Q.     E  E  E   
--0-----------0--0--1--|--1-----------3--3--0--|--0-----------0--0--1--|
--1-----------1--1--1--|--1-----------0--0--1--|--1-----------1--1--1--|
--0-----------0--0--2--|--2-----------0--0--2--|--2-----------0--0--2--|
--2-----------2--2--3--|--3-----------0--0--2--|--2-----------2--2--3--|
--3-----------3--3--3--|--3-----------2--2--0--|--0-----------3--3--3--|
--------------0--0--1--|--1-----------3--3-----|--------------0--0--1--|

                       -Verse Part 2-
                          PM PM PM PM PM PM PM PM    PM PM PM PM PM PM PM PM  
  Q    Q.     E  E  E     E  E  E  E  E  E  E  E     E  E  E  E  E  E  E  E   
--1-----------------0--|--0--0--0--0--0--3--3--0--|--0--0--0--0--0--3--3--0--|
--1-----------3--3--1--|--1--1--1--1--1--1--1--1--|--1--1--1--1--1--3--3--1--|
--2-----------0--0--0--|--0--0--0--0--0--0--0--0--|--0--0--0--0--0--5--5--0--|
--3-----------0--0--2--|--2--2--2--2--2--0--0--2--|--2--2--2--2--2--5--5--2--|
--3-----------2--2--3--|--3--3--3--3--3--3--3--3--|--3--3--3--3--3--5--5--0--|
--1--------------------|-----------------0--0--1--|--1--1--1--1--1--3--3-----|


  PM PM PM PM PM PM PM PM    PM PM PM PM PM PM PM PM  
  E  E  E  E  E  E  E  E     E  E  E  E  E  E  E  E   
--0--0--0--0--0--3--3--0--|--0--0--0--0--0--3--3--0--|
--1--1--1--1--1--1--1--1--|--1--1--1--1--1--1--1--1--|
--0--0--0--0--0--0--0--0--|--0--0--0--0--0--0--0--0--|
--2--2--2--2--2--0--0--2--|--2--2--2--2--2--0--0--2--|
--0--0--0--0--0--3--3--3--|--3--3--3--3--3--2--2--3--|
-----------------0--0--1--|--1--1--1--1--1-----------|


  PM PM PM PM PM PM PM PM    PM PM PM PM PM PM PM PM  
  E  E  E  E  E  E  E  E     E  E  E  E  E  E  E  E   
--0--0--0--0--0--3--3--0--|--0--0--0--0--0--3--3--0--|
--1--1--1--1--1--1--1--1--|--1--1--1--1--1--3--3--1--|
--0--0--0--0--0--0--0--0--|--0--0--0--0--0--5--5--0--|
--2--2--2--2--2--0--0--2--|--2--2--2--2--2--5--5--2--|
--3--3--3--3--3--3--3--3--|--3--3--3--3--3--5--5--0--|
-----------------0--0--1--|--1--1--1--1--1--3--3-----|

                                                     -Pre-Chorus-
  E  E  E  E  E  E  E  E     E  E  E  E  E  E  E  E     Q.     Q.     Q     
--0--0--0--3--3--3--3--2--|--2--2--2--2--2--2--2--2--|--0------0------0----|
--1--1--1--0--0--0--0--1--|--1--1--1--1--1--1--1--1--|--1------1------1----|
--0--0--0--0--0--0--0--2--|--2--2--2--2--2--2--2--2--|--2------2------2----|
--2--2--2--0--0--0--0--0--|--0--0--0--0--0--0--0--0--|--3------3------3----|
--0--0--0--2--2--2--2--0--|--0--0--0--0--------------|--3------3------3----|
-----------3--3--3--3--2--|--2--2--2--2--------------|--1------1------1----|


  Q.     Q.     Q       Q.     Q.     Q       E  E  E  E  E  E  E  E   
--1------1------1----|--0------0------0----|--1--1--1--1--1--3--3--0--|
--1------1------1----|--1------1------1----|--1--1--1--1--1--3--3--1--|
--2------2------2----|--2------2------2----|--2--2--2--2--2--0--0--0--|
--3------3------3----|--3------3------3----|--3--3--3--3--3--0--0--2--|
--3------3------3----|--3------3------3----|--3--3--3--3--3--2--2--3--|
--3------3------3----|--1------1------1----|--3--3--3--3--3-----------|

-Chorus-
  E  E  E  E  E  E  E  E     E  E  E  E  E  E  E  E   
--0--0--0--0--0--3--3--0--|--0--0--0--0--0--3--3--0--|
--1--1--1--1--1--1--1--1--|--1--1--1--1--1--3--3--1--|
--0--0--0--0--0--0--0--0--|--0--0--0--0--0--5--5--0--|
--2--2--2--2--2--0--0--2--|--2--2--2--2--2--5--5--2--|
--3--3--3--3--3--3--3--3--|--3--3--3--3--3--5--5--0--|
-----------------0--0--1--|--1--1--1--1--1--3--3-----|


  E  E  E  E  E  E  E  E     E  E  E  E  E  E  E  E   
--0--0--0--0--0--3--3--0--|--0--0--0--0--0--3--3--0--|
--1--1--1--1--1--1--1--1--|--1--1--1--1--1--1--1--1--|
--0--0--0--0--0--0--0--0--|--0--0--0--0--0--0--0--0--|
--2--2--2--2--2--0--0--2--|--2--2--2--2--2--0--0--2--|
--0--0--0--0--0--3--3--3--|--3--3--3--3--3--2--2--3--|
-----------------0--0--1--|--1--1--1--1--1-----------|


  E  E  E  E  E  E  E  E     E  E  E  E  E  E  E  E   
--0--0--0--0--0--3--3--0--|--0--0--0--0--0--3--3--0--|
--1--1--1--1--1--1--1--1--|--1--1--1--1--1--3--3--1--|
--0--0--0--0--0--0--0--0--|--0--0--0--0--0--5--5--0--|
--2--2--2--2--2--0--0--2--|--2--2--2--2--2--5--5--2--|
--3--3--3--3--3--3--3--3--|--3--3--3--3--3--5--5--0--|
-----------------0--0--1--|--1--1--1--1--1--3--3-----|


  E  E  E  E  E  E  E  E     E  E  E  E  E  E  E  E   
--0--0--0--0--0--3--3--0--|--0--0--0--0--0--3--3--0--|
--1--1--1--1--1--1--1--1--|--1--1--1--1--1--1--1--1--|
--0--0--0--0--0--0--0--0--|--0--0--0--0--0--0--0--0--|
--2--2--2--2--2--0--0--2--|--2--2--2--2--2--0--0--2--|
--0--0--0--0--0--3--3--3--|--3--3--3--3--3--2--2--3--|
-----------------0--0--1--|--1--1--1--1--1-----------|

-Post-Chorus-
  E  E  E  E  E  E  E  E     E  E  E  E  E  E  E  E   
--0--0--0--0--0--3--3--0--|--0--0--0--0--0--3--3--0--|
--1--1--1--1--1--1--1--1--|--1--1--1--1--1--3--3--1--|
--0--0--0--0--0--0--0--0--|--0--0--0--0--0--5--5--0--|
--2--2--2--2--2--2--2--2--|--2--2--2--2--2--3--3--2--|
--3--3--3--3--3--3--3--3--|--3--3--3--3--3--5--5--0--|
-----------------0--0--1--|--1--1--1--1--1--3--3-----|

                                                     -Verse 2-
  E  E  E  E  E  E  E  E     E  E  E  E  E  E  E  E     Q    Q.     E  E  E   
--0--0--0--0--0--3--3--0--|--0--0--0--0--0--3--3--0--|--0-----------0--0--1--|
--1--1--1--1--1--1--1--1--|--1--1--1--1--1--3--3--1--|--1-----------1--1--1--|
--0--0--0--0--0--0--0--0--|--0--0--0--0--0--0--0--0--|--0-----------0--0--2--|
--2--2--2--2--2--2--2--2--|--2--2--2--2--2--0--0--2--|--2-----------2--2--3--|
--0--0--0--0--0--3--3--3--|--3--3--3--3--3--2--2--3--|--3-----------3--3--3--|
-----------------0--0--1--|--1--1--1--1--1-----------|--------------0--0--1--|


  Q    Q.     E  E  E     Q    Q.     E  E  E     Q    Q.     E  E  E   
--1-----------3--3--0--|--0-----------0--0--1--|--1-----------------0--|
--1-----------0--0--1--|--1-----------1--1--1--|--1-----------3--3--1--|
--2-----------0--0--2--|--2-----------0--0--2--|--2-----------0--0--0--|
--3-----------0--0--2--|--2-----------2--2--3--|--3-----------0--0--2--|
--3-----------2--2--0--|--0-----------3--3--3--|--3-----------2--2--3--|
--1-----------3--3-----|--------------0--0--1--|--1--------------------|


  Q    Q.     E  E  E     Q    Q.     E  E  E     Q    Q.     E  E  E   
--0-----------0--0--1--|--1-----------3--3--0--|--0-----------0--0--1--|
--1-----------1--1--1--|--1-----------0--0--1--|--1-----------1--1--1--|
--0-----------0--0--2--|--2-----------0--0--2--|--2-----------0--0--2--|
--2-----------2--2--3--|--3-----------0--0--2--|--2-----------2--2--3--|
--3-----------3--3--3--|--3-----------2--2--0--|--0-----------3--3--3--|
--------------0--0--1--|--1-----------3--3-----|--------------0--0--1--|

                       -Verse 2 Part 2-
                          PM PM PM PM PM PM PM PM    PM PM PM PM PM PM PM PM  
  Q    Q.     E  E  E     E  E  E  E  E  E  E  E     E  E  E  E  E  E  E  E   
--1-----------------0--|--0--0--0--0--0--3--3--0--|--0--0--0--0--0--3--3--0--|
--1-----------3--3--1--|--1--1--1--1--1--1--1--1--|--1--1--1--1--1--3--3--1--|
--2-----------0--0--0--|--0--0--0--0--0--0--0--0--|--0--0--0--0--0--5--5--0--|
--3-----------0--0--2--|--2--2--2--2--2--0--0--2--|--2--2--2--2--2--5--5--2--|
--3-----------2--2--3--|--3--3--3--3--3--3--3--3--|--3--3--3--3--3--5--5--0--|
--1--------------------|-----------------0--0--1--|--1--1--1--1--1--3--3-----|


  PM PM PM PM PM PM PM PM    PM PM PM PM PM PM PM PM  
  E  E  E  E  E  E  E  E     E  E  E  E  E  E  E  E   
--0--0--0--0--0--3--3--0--|--0--0--0--0--0--3--3--0--|
--1--1--1--1--1--1--1--1--|--1--1--1--1--1--1--1--1--|
--0--0--0--0--0--0--0--0--|--0--0--0--0--0--0--0--0--|
--2--2--2--2--2--0--0--2--|--2--2--2--2--2--0--0--2--|
--0--0--0--0--0--3--3--3--|--3--3--3--3--3--2--2--3--|
-----------------0--0--1--|--1--1--1--1--1-----------|


  PM PM PM PM PM PM PM PM    PM PM PM PM PM PM PM PM  
  E  E  E  E  E  E  E  E     E  E  E  E  E  E  E  E   
--0--0--0--0--0--3--3--0--|--0--0--0--0--0--3--3--0--|
--1--1--1--1--1--1--1--1--|--1--1--1--1--1--3--3--1--|
--0--0--0--0--0--0--0--0--|--0--0--0--0--0--5--5--0--|
--2--2--2--2--2--0--0--2--|--2--2--2--2--2--5--5--2--|
--3--3--3--3--3--3--3--3--|--3--3--3--3--3--5--5--0--|
-----------------0--0--1--|--1--1--1--1--1--3--3-----|

                                                     -Pre-Chorus 2-
  E  E  E  E  E  E  E  E     E  E  E  E  E  E  E  E     Q.     Q.     Q     
--0--0--0--3--3--3--3--2--|--2--2--2--2--2--2--2--2--|--0------0------0----|
--1--1--1--0--0--0--0--1--|--1--1--1--1--1--1--1--1--|--1------1------1----|
--0--0--0--0--0--0--0--2--|--2--2--2--2--2--2--2--2--|--2------2------2----|
--2--2--2--0--0--0--0--0--|--0--0--0--0--0--0--0--0--|--3------3------3----|
--0--0--0--2--2--2--2--0--|--0--0--0--0--------------|--3------3------3----|
-----------3--3--3--3--2--|--2--2--2--2--------------|--1------1------1----|


  Q.     Q.     Q       Q.     Q.     Q       E  E  E  E  E  E  E  E   
--1------1------1----|--0------0------0----|--1--1--1--1--1--3--3--0--|
--1------1------1----|--1------1------1----|--1--1--1--1--1--3--3--1--|
--2------2------2----|--2------2------2----|--2--2--2--2--2--0--0--0--|
--3------3------3----|--3------3------3----|--3--3--3--3--3--0--0--2--|
--3------3------3----|--3------3------3----|--3--3--3--3--3--2--2--3--|
--3------3------3----|--1------1------1----|--3--3--3--3--3-----------|

-Chorus 2-
  E  E  E  E  E  E  E  E     E  E  E  E  E  E  E  E   
--0--0--0--0--0--3--3--0--|--0--0--0--0--0--3--3--0--|
--1--1--1--1--1--1--1--1--|--1--1--1--1--1--3--3--1--|
--0--0--0--0--0--0--0--0--|--0--0--0--0--0--5--5--0--|
--2--2--2--2--2--0--0--2--|--2--2--2--2--2--5--5--2--|
--3--3--3--3--3--3--3--3--|--3--3--3--3--3--5--5--0--|
-----------------0--0--1--|--1--1--1--1--1--3--3-----|


  E  E  E  E  E  E  E  E     E  E  E  E  E  E  E  E   
--0--0--0--0--0--3--3--0--|--0--0--0--0--0--3--3--0--|
--1--1--1--1--1--1--1--1--|--1--1--1--1--1--1--1--1--|
--0--0--0--0--0--0--0--0--|--0--0--0--0--0--0--0--0--|
--2--2--2--2--2--0--0--2--|--2--2--2--2--2--0--0--2--|
--0--0--0--0--0--3--3--3--|--3--3--3--3--3--2--2--3--|
-----------------0--0--1--|--1--1--1--1--1-----------|


  E  E  E  E  E  E  E  E     E  E  E  E  E  E  E  E   
--0--0--0--0--0--3--3--0--|--0--0--0--0--0--3--3--0--|
--1--1--1--1--1--1--1--1--|--1--1--1--1--1--3--3--1--|
--0--0--0--0--0--0--0--0--|--0--0--0--0--0--5--5--0--|
--2--2--2--2--2--0--0--2--|--2--2--2--2--2--5--5--2--|
--3--3--3--3--3--3--3--3--|--3--3--3--3--3--5--5--0--|
-----------------0--0--1--|--1--1--1--1--1--3--3-----|


  E  E  E  E  E  E  E  E     E  E  E  E  E  E  E  E   
--0--0--0--0--0--3--3--0--|--0--0--0--0--0--3--3--0--|
--1--1--1--1--1--1--1--1--|--1--1--1--1--1--1--1--1--|
--0--0--0--0--0--0--0--0--|--0--0--0--0--0--0--0--0--|
--2--2--2--2--2--0--0--2--|--2--2--2--2--2--0--0--2--|
--0--0--0--0--0--3--3--3--|--3--3--3--3--3--2--2--3--|
-----------------0--0--1--|--1--1--1--1--1-----------|

-Post-Chorus 2-
  E  E  E  E  E  E  E  E     E  E  E  E  E  E  E  E   
--0--0--0--0--0--3--3--0--|--0--0--0--0--0--3--3--0--|
--1--1--1--1--1--1--1--1--|--1--1--1--1--1--3--3--1--|
--0--0--0--0--0--0--0--0--|--0--0--0--0--0--5--5--0--|
--2--2--2--2--2--2--2--2--|--2--2--2--2--2--3--3--2--|
--3--3--3--3--3--3--3--3--|--3--3--3--3--3--5--5--0--|
-----------------0--0--1--|--1--1--1--1--1--3--3-----|

                                                    -Interlude-
  E  E  E  E  E  E  E  E     E  E  E  E  E  E  Q       Q.     Q.     Q     
--0--0--0--0--0--3--3--0--|--0--0--0--0--0--3--3----|--0------0------0----|
--1--1--1--1--1--1--1--1--|--1--1--1--1--1--6--6----|--1------1------1----|
--0--0--0--0--0--0--0--0--|--0--0--0--0--0--5--5----|--2------2------2----|
--2--2--2--2--2--2--2--2--|--2--2--2--2--2--5--5----|--3------3------3----|
--0--0--0--0--0--3--3--3--|--3--3--3--3--3--3--3----|--3------3------3----|
-----------------0--0--1--|--1--1--1--1--1----------|--1------------------|


  Q.     Q.     Q       Q.     Q.     Q       H        H         
--1------1------1----|--0------0------0----|--3--------0--------|
--1------1------1----|--1------1------1----|--0--------0--------|
--2------2------2----|--2------2------2----|--0--------0--------|
--3------3------3----|--2------2------2----|--0--------2--------|
--3------3------3----|--0------0------0----|--2--------3--------|
--3------3------3----|---------------------|--------------------|


  Q.     Q.     Q       Q.     Q.     Q       Q    Q    Q    Q     
--0------0------0----|--3------3------3----|--3----3----3----3----|
--1------1------1----|--0------0------0----|--0----0----0----0----|
--2------2------2----|--0------0------0----|--0----0----0----0----|
--3------3------3----|--0------0------0----|--0----0----0----0----|
--3------3------3----|--2------2------2----|--2----2----2----2----|
--1------------------|--3------------------|--3----3----3----3----|

                        -Key-Change Chorus-
  Q    Q    E  E  E  E     E  E  E  E  E  E  E  E     E  E  E  E  E  E  E  E   
--0----0----0--0--0--2--|--2--2--2--2--2--0--0--2--|--2--2--2--2--2--0--0--2--|
--2----2----2--2--2--3--|--3--3--3--3--3--3--3--3--|--3--3--3--3--3--3--3--3--|
--2----2----2--2--2--2--|--2--2--2--2--2--2--2--2--|--2--2--2--2--2--2--2--2--|
--2----2----2--2--2--0--|--0--0--0--0--0--0--0--0--|--0--0--0--0--0--2--2--4--|
--0----0----0--4--4-----|-----------------0--0--0--|--0--0--0--0--0--0--0--2--|
------------------------|-----------------2--2--3--|--3--3--3--3--3-----------|


  E  E  E  E  E  E  E  E     E  E  E  E  E  E  E  E   
--2--2--2--2--2--0--0--2--|--2--2--2--2--2--0--0--2--|
--3--3--3--3--3--3--3--3--|--3--3--3--3--3--3--3--3--|
--2--2--2--2--2--2--2--2--|--2--2--2--2--2--2--2--2--|
--4--4--4--4--4--0--0--0--|--0--0--0--0--0--2--2--0--|
--2--2--2--2--2--0--0--0--|--0--0--0--0--0--4--4-----|
-----------------2--2--3--|--3--3--3--3--3-----------|


  E  E  E  E  E  E  E  E     E  E  E  E  E  E  E  E   
--2--2--2--2--2--0--0--2--|--2--2--2--2--2--0--0--2--|
--3--3--3--3--3--3--3--3--|--3--3--3--3--3--3--3--3--|
--2--2--2--2--2--2--2--2--|--2--2--2--2--2--2--2--2--|
--0--0--0--0--0--0--0--0--|--0--0--0--0--0--2--2--4--|
-----------------0--0--0--|--0--0--0--0--0--0--0--2--|
-----------------2--2--3--|--3--3--3--3--3-----------|


  E  E  E  E  E  E  E  E     E  E  E  E  E  E  E  E   
--2--2--2--2--2--2--2--2--|--2--2--2--2--2--3--3--0--|
--3--3--3--3--3--3--3--3--|--3--3--3--3--3--3--3--1--|
--2--2--2--2--2--2--2--2--|--2--2--2--2--2--0--0--0--|
--4--4--4--4--4--0--0--0--|--0--0--0--0--0--0--0--2--|
--2--2--2--2--2--0--0--0--|--0--0--0--0--0--2--2--3--|
-----------------2--2--3--|--3--3--3--3--3-----------|

-Dual Guitar Solo-
   S S S  S S S  S S S S  S S  S S S S     S S S  S S S  S S S S  S S  S S S S  
---------------------------------------|---------------------------------------|
--13-----13-----13-------17---17-------|--13-----13-----13-------17---17-------|
---------------------------------------|---------------------------------------|
---------------------------------------|---------------------------------------|
---------------------------------------|---------------------------------------|
---------------------------------------|---------------------------------------|


   S S S  S S S  S S S  S S S  S S S  S  
----------------------------------------|
--17-----15-----13-----15-----13--------|
-------------------------------------16-|
----------------------------------------|
----------------------------------------|
----------------------------------------|


  S S  S S S  S S S  S  S  S  S  S  S  S  S    E  S  Q    S S  S S S S S S S  
--------------------------------------------|---------------0--0-0-0-0-0-0-0-|
------13------------------------------------|---------------4b-5-5-5-5-5-5-5-|
-------------16-----14-14-14-12-12-12-10-10-|--9--L\-------------------------|
--------------------------------------------|--------------------------------|
--------------------------------------------|--------------------------------|
--------------------------------------------|--------------------------------|


  H        S   S  S  S  S  S  S  S    H         S   S  S  S  S  S  S  S  
-----------------------------------|------------------------------------|
-----------6---6--6--6--6--6--6--6-|------------8---8--8--8--8--8--8--8-|
-----------9b-10-10-10-10-10-10-10-|-----------11b-12-12-12-12-12-12-12-|
-----------------------------------|------------------------------------|
-----------------------------------|------------------------------------|
-----------------------------------|------------------------------------|


   S  S  S  S  S  S  S  S  S  S  S  S  S  S  S  S     W                 
--------------------------------------------------|--------------------|
--------------------------------------------------|--------------------|
--10-12-10-12-10-12-10-12-10-12-14-12-14-12-14-12-|--------------------|
--------------------------------------------------|--10----------------|
--------------------------------------------------|--------------------|
--------------------------------------------------|--------------------|

-Outro-
-------------------|-------------------|-------------------|-------------------|
-------------------|-------------------|-------------------|-------------------|
-------------------|-------------------|-------------------|-------------------|
-------------------|-------------------|-------------------|-------------------|
-------------------|-------------------|-------------------|-------------------|
-------------------|-------------------|-------------------|-------------------|


-------------------|-------------------|-------------------||
-------------------|-------------------|-------------------||
-------------------|-------------------|-------------------||
-------------------|-------------------|-------------------||
-------------------|-------------------|-------------------||
-------------------|-------------------|-------------------||


**********
*Guitar 2*
**********

-Intro-

-Verse-

-Verse Part 2-

  -Pre-Chorus-
     E   E   E   E   H           E   E   E   E   H         
E||---------------------------|---------------------------|
B||-------------10---L--------|--------------8---L--------|
G||---------10-------L--------|----------9-------L--------|
D||-----10-----------L--------|-----10-----------L--------|
A||---------------------------|---------------------------|
E||---------------------------|---------------------------|



  E   E   E   E   H           E   E   E   E   H         
---------------------------|-------------13---L--------|
-------------10---L--------|---------10-------L--------|
---------10-------L--------|-----12-----------L--------|
-----10-----------L--------|---------------------------|
---------------------------|---------------------------|
---------------------------|---------------------------|

-Chorus-

-Post-Chorus-

-Verse 2-

-Verse 2 Part 2-

-Pre-Chorus 2-
  E   E   E   E   H           E   E   E   E   H         
---------------------------|---------------------------|
-------------10---L--------|--------------8---L--------|
---------10-------L--------|----------9-------L--------|
-----10-----------L--------|-----10-----------L--------|
---------------------------|---------------------------|
---------------------------|---------------------------|



  E   E   E   E   H           E   E   E   E   H         
---------------------------|-------------13---L--------|
-------------10---L--------|---------10-------L--------|
---------10-------L--------|-----12-----------L--------|
-----10-----------L--------|---------------------------|
---------------------------|---------------------------|
---------------------------|---------------------------|

-Chorus 2-

-Post-Chorus 2-

-Interlude-
  E   E   E   E   H           E    E  E  E   H         
---------------------------|--------------------------|
-------------10---L--------|-------------8---L--------|
---------10-------L--------|----------9------L--------|
-----10-----------L--------|-----/10---------L--------|
---------------------------|--------------------------|
---------------------------|--------------------------|


  E   E   E   E   H           E   E   E   Q.      E   E                    
---------------------------|------------------------------|
-------------10---L--------|-------------15-------L-------|
---------10-------L--------|---------12---L------12---L\--|
-----10-----------L--------|-----12---------------L-------|
---------------------------|------------------------------|
---------------------------|------------------------------|


-------------------|-------------------|
-------------------|-------------------|
-------------------|-------------------|
-------------------|-------------------|
-------------------|-------------------|
-------------------|-------------------|


-------------------|-------------------|
-------------------|-------------------|
-------------------|-------------------|
-------------------|-------------------|
-------------------|-------------------|
-------------------|-------------------|


-Key Change Chorus-

-Dual Guitar Solo-
  S S S S S S S S S S S S S S S S    S S S S S S S S S S S S S S S S  
--3-0-0-3-0-0-3-0-0-0-8-0-8-0-0-0-|--3-0-0-3-0-0-3-0-0-0-8-0-8-0-0-0-|
----------------------------------|----------------------------------|
----------------------------------|----------------------------------|
----------------------------------|----------------------------------|
----------------------------------|----------------------------------|
----------------------------------|----------------------------------|


  S S S S S S S S S S S S S S S S    S S S S S S S S S S S S S S S S  
--8-0-0-7-0-0-5-0-0-7-0-0-5-0-0-3-|--0-0-5-0-0-3-0-0-1-1-1-0-0-0-----|
----------------------------------|------------------------------3-3-|
----------------------------------|----------------------------------|
----------------------------------|----------------------------------|
----------------------------------|----------------------------------|
----------------------------------|----------------------------------|


  E.   H        S S S S S     E.    H        S S  S S  S  
------/8--------7-5-------|-------/10--------8-7---------|
--------------------8-6-5-|----------------------10-8----|
--------------------------|--/7-----------------------10-|
--------------------------|------------------------------|
--------------------------|------------------------------|
--------------------------|------------------------------|


   E.    H         S S  S  S S     S S  S S S  S  S  S  S  S  S  S  S  S  S  S  
-------/12--------10-8---------|-----------------------------------------------|
-----------------------12-10-8-|--10-8--------12-10----13-12-10----18-17-15----|
--/9---------------------------|-------10-9-7-------12----------12----------17-|
-------------------------------|-----------------------------------------------|
-------------------------------|-----------------------------------------------|
-------------------------------|-----------------------------------------------|


    W                                                         
--/20----------------|
---------------------|
---------------------|
---------------------|
---------------------|
---------------------|




Duration Legend
---------------
W - whole
H - half
Q - quarter
E - 8th
S - 16th
T - 32nd
X - 64th
. - note dotted
|-n-|  - n-tuplets


Tablature Legend
----------------
L - tied note
x - dead note
g - grace note
(n) - ghost note
> - accentuded note
NH - natural harmonic
AH - artificial harmonic
TH - tapped harmonic
SH - semi harmonic
PH - pitch harmonic
h - hammer on
p - pull off
b - bend
br - bendRelease
pb - preBend
pbr - preBendRelease
brb - bendReleaseBend
\n/ - tremolo bar dip
\n - tremolo bar dive
-/n - tremolo bar Release up
/n\ - tremolo bar inverted dip
/n - tremolo bar return
-\n - tremolo bar Release down
S - shift slide
s - legato slide
/ -  slide into from below or out of upwards
\ -  slide into from above or out of downwards
~ - vibrato
W - wide vibrato
tr - trill
TP - tremolo picking
T - tapping
S - slap
P - pop
< - fade in
^ - brush up
v - brush down





Comments


Popular Feeling tabs & chords
Fill My Little World Bass Tabs
Fill My Little World 1 Bass Tabs
Sewn 1 Chords
Strange Chords
This Time Chords
Fill My Little World 2 Tabs
I Thought It Was Over Tabs
Rose Tabs
A Hundred Sinners Come And Get It Ukulele
Love It When You Call Ukulele


Song lyrics



↑ Back to top | Tablatures and chords are parodies/interpretations of the original songs. You may use it for private study, scholarship, research or language learning purposes only
© 2014 AZChords.com Contact us | Privacy policy | DMCA | Add/correct tabs | Request tabs | Top 50 tabs