» » »

Feeling, Join With Us Tabs (ver.1)

Artists:  A B C D E F G H I J K L M N O P Q R S T U V W X Y Z # 

Join With Us Tabs (ver.1)

Feeling Tabs
 Rating:
4/5 (6 votes)
Join With Us lessons Tabs too difficult? Try these video lessons and learn fast
                ------------------------------------------------------------------------------
                             Join With Us - The Feeling
------------------------------------------------------------------------------

Tuning: E A G B e

Intro

(Ticking Clock)

Piano plays G# 8 times

Verse

Guitar 1
e|0-0--0-0-0--0-0-0--0-0-0--0-0-0--0-0-0--0-0-0--0-0-0--0-------------------|
B|0-0--0-0-0--0-0-0--0-0-0--0-1-1--1-1-1--1-1-1--1-1-1--1-------------------|
G|1-1--1-1-1--1-1-1--1-1-1--1-0-0--0-0-0--0-0-0--0-0-0--0-------------------|
D|2-2--2-2-2--2-2-2--2-2-2--2-2-2--2-2-2--2-2-2--2-2-2--2-------------------|
A|2-2--2-2-2--2-2-2--2-2-2--2-3-3--3-3-3--3-3-3--3-3-3--3-------------------|
E|0-0--0-0-0--0-0-0--0-0-0--0-----------------------------------------------|   X2

Guitar 2
e|---------------------------15b14b15--12b10b12--8b7b8---------------------------|
B|-------------------------------------------------------------------------------|
G|-------------------------------------------------------------------------------|
D|-------------------------------------------------------------------------------|
A|-------------------------------------------------------------------------------|
E|-------------------------------------------------------------------------------|  X2

Guitar 3 (Harmony to Guitar 2
e|----------------------------12b10b12--8b7b8--3b2b2--3b2b3-2--0-------------|
B|---------------------------------------------------------------------------|
G|---------------------------------------------------------------------------|
D|---------------------------------------------------------------------------|
A|---------------------------------------------------------------------------|
E|---------------------------------------------------------------------------|  X2

Pre Chorus 1

Harpsichord

C  C/B  C/A  C/G  C/F  C/F  A# C

Guitar 2
e|---------------------------------------------------------------------------|
B|------------10-10-10-10---------7-7-7-7---------3-3-3-3--------------------|
G|11-11-11-11-------------7-7-7-7---------4-4-4-4----------------------------|
D|--------------------------------------------------------2--5--7------------|
A|---------------------------------------------------------------------------|
E|---------------------------------------------------------------------------|

Pre Chorus 2

Guitar 1
e|0-0--0-0-0--0-0-0--0-0-0--0-0-0--0-0-0--0-0-0--0-0-0--0-------------------|
B|0-0--0-0-0--0-0-0--0-0-0--0-0-0--0-0-0--0-0-0--0-0-0--0-------------------|
G|1-1--1-1-1--1-1-1--1-1-1--1-2-2--2-2-2--2-2-2--2-2-2--2-------------------|
D|2-2--2-2-2--2-2-2--2-2-2--2-2-2--2-2-2--2-2-2--2-2-2--2-------------------|
A|2-2--2-2-2--2-2-2--2-2-2--2-3-3--3-3-3--3-3-3--3-3-3--3-------------------|
E|0-0--0-0-0--0-0-0--0-0-0--0-0-0--0-0-0--0-0-0--0-0-0--0-------------------|  X2

Guitar 2
e|---------------------------------------------------------------------------|
B|---------------------------------------------------------------------------|
G|-9-9--9-9--9--9-9--9-9--9--9-9--9-9--9--9-9--9-9--9------------------------|
D|---------------------------------------------------------------------------|
A|-7-7--7-7--7--7-7--7-7--7--7-7--7-7--7--7-7--7-7--7------------------------|
E|---------------------------------------------------------------------------|  X2

Guitar 3
e|---------------------------------------------------------------------------|
B|5/12---------------------12/5----------------------------------------------|
G|---------------------------------------------------------------------------|
D|---------------------------------------------------------------------------|
A|---------------------------------------------------------------------------|
E|---------------------------------------------------------------------------|  X2

Chorus

Guitar 1
e|0-0--0-0-0--0-0-0--0-0-0--0-0-0--0-0-0--0-0-0--0-0-0--0-------------------|
B|0-0--0-0-0--0-0-0--0-0-0--0-0-0--0-0-0--0-0-0--0-0-0--0-------------------|
G|1-1--1-1-1--1-1-1--1-1-1--1-2-2--2-2-2--2-2-2--2-2-2--2-------------------|
D|2-2--2-2-2--2-2-2--2-2-2--2-2-2--2-2-2--2-2-2--2-2-2--2-------------------|
A|2-2--2-2-2--2-2-2--2-2-2--2-3-3--3-3-3--3-3-3--3-3-3--3-------------------|
E|0-0--0-0-0--0-0-0--0-0-0--0-0-0--0-0-0--0-0-0--0-0-0--0-------------------|  X2

Guitar 2
e|---------------------------------------------------------------------------|
B|---------------------------------------------------------------------------|
G|-9-9--9-9--9--9-9--9-9--9--9-9--9-9--9--9-9--9-9--9------------------------|
D|---------------------------------------------------------------------------|
A|-7-7--7-7--7--7-7--7-7--7--7-7--7-7--7--7-7--7-7--7------------------------|
E|---------------------------------------------------------------------------|  X2

Verse 2

Guitar 1
Same rhythm as Verse 1 but with chords F# and D

Guitar 2
e|-----------5------------------5-----------------------------------------------|
B|7b5b7b5b7-----5/7--7b5b7b5b7-----5/7------------------------------------------|
G|------------------------------------------------------------------------------|
D|------------------------------------------------------------------------------|
A|------------------------------------------------------------------------------|
E|------------------------------------------------------------------------------|

e|--------5---------------5-----------7-8-10-12-13-14------------------------|
B|7b5b7-8---8-7--7b5b7-8----8--7-8-10----------------------------------------|
G|---------------------------------------------------------------------------|
D|---------------------------------------------------------------------------|
A|---------------------------------------------------------------------------|
E|---------------------------------------------------------------------------|

Guitar 3 (Harmony to Guitar 2)
e|--------7-7b-7-------------7-7b-7----7-9-10-12-14-15-16-17-----------------|
B|10b9b10--------10--10b9b10--------10---------------------------------------|
G|---------------------------------------------------------------------------|
D|---------------------------------------------------------------------------|
A|---------------------------------------------------------------------------|
E|---------------------------------------------------------------------------|

Pre Chorus 1

Pre Chorus 2

Chorus

Bridge

Guitar 1
e|---------------------------------------------------------------------------|
B|--8----8------8------------------------------------------------------------|
G|7--7-6---6-5----5-4--------------------------------------------------------|
D|---------------------------------------------------------------------------|
A|---------------------------------------------------------------------------|
E|---------------------------------------------------------------------------|  X3

(With Overdrive)
e|---------------------------------------------------------------------------|
B|---------------------------------------------------------------------------|
G|2--2-----------------------------------------------------------------------|
D|2--2----2---2---5-5---7-7--------------------------------------------------|
A|0--0----0---0---3-3---5-5--------------------------------------------------|
E|------3---3---3------------------------------------------------------------|


Solo

I have no idea how to play this solo. It's played over the chorus so play that unless 
know how to play the solo.

Chorus X2

Ring Ring Beep Beep Aha (Chorus)

Piano

Fade in E

Build Up (Bass Only)

All Guitars
e|---------------------------------------------------------------------------|
B|---------------------------------------------------------------------------|
G|-9-9--9-9--9-9--9-9--9-8-7-6--5-5--5-5--5-5--------------------------------|
D|-9-9--9-9--9-9--9-9-----------5-5--5-5--5-5--2-2-2-2-----------------------|
A|-7-7--7-7--7-7--7-7--7-6-5-4--3-3--3-3--3-3--0-0-0-0-3-0-3-5---------------|
E|-0-0--0-0--0-0--0-0--------------------------------------------------------| X2

And that's it.
            
Submit corrections

comments powered by Disqus
↑ Back to top | Feeling Tabs for Join With Us. Lyrics for acoustic guitar and electric guitar. Tablatures and chords are parodies/interpretations of the original songs. You may use it for private study, scholarship, research or language learning purposes only