>
 >
Join With Us

Join With Us Bass Tabs

Feeling - Join With Us chords, tabs, tablatures, lyrics

Guitar lessons | Add/correct | Request | Top 50 tabs Artists:  A B C D E F G H I J K L M N O P Q R S T U V W X Y Z 0-9

Join With Us Bass Tabs – Feeling

CD, Sheet music, Poster

Do you like Join With Us? Share with your friends now
Bass TabsTabs
    ________________
   / The Feeling   /  I think this song is The Feeling's ultimate be-happy 
  / Join With Us  /  revolutionary statement: Quit your stressed and pessimistic
 / Join With Us  /  life, listen to some Feeling, spread some love, and live out
/_______________/  your dreams with us! Obviously, I can't help thinking that
                  this could also be a call out to the gay people, who hasn't
                 come out of the closet yet, to just do so!


 Intro
The alarm clock ticks, the choir sings, then a bar of E where the bass is out.


 1st Verse
Tempo: Q=95 bpm
Key: [E mixolydian]
  E                 E                 C                 C
|-----------------|-----------------|-----------------|-----------------|
|-----------------|-----------------|-----4-5-----4-5-|-----4-5---------|
|-7-7-4-5-7-7-4-5-|-7-7-4-5-7-6-5-4-|-3-3-----3-3-----|-3-3-----3-3-5-6-|
|-----------------|-----------------|-----------------|-----------------|

  E                 E                 C                 C
|-----------------|-----------------|-----------------|-----------------|
|-----------------|-----------------|-----4-5-----4-5-|-----4-5-----4-5-|
|-7-7-4-5-7-7-4-5-|-7-7-4-5-7-6-5-4-|-3-3-----3-3-----|-3-3-----3-3-----|
|-----------------|-----------------|-----------------|-----------------|


 Pre-Chorus
[Cmajor part]: out for these 4 bars:
              | C C/B | C/A C/G | F/C | A# C |


[Dmajor part]:
 Notice the very staccato sound, which is also used in the Choruses.
  D       F#m       G       Bm/F#     Em      G/D       C       D
|-----------------|-----------------|-----------------|-----------------|
|---------4-4-4-4-|-5-5-5-5-4-4-4-4-|-2-2-2-2---------|-----------------|
|-5---5-5---------|-----------------|---------5-5-5---|-3-------5---6---|
|-----------------|-----------------|-----------------|-----3-----------|


 Chorus
[Emajor]
  E                 E                 Am/C               Am
|-----------------|-----------------|------------------|-----------------|
|-------------6-9-|-------------6-9-|------------------|-----------------|
|-7-7--2/-7-7-----|-7-7--2/-7-7-----|-------------7-10-|-------------5-6-|
|-----------------|-----------------|-8-8--3/-8-8------|-5-5--5--8-8-----|

  E                 E                 Am/C               Am
|-----------------|-----------------|------------------|-----------------|
|-------------6-9-|-------------6-9-|------------------|-----------------|
|-7-7--2/-7-7-----|-7-7--2/-7-7-----|-------------7-10-|-------------5-6-|
|-----------------|-----------------|-8-8--3/-8-8------|-5-5--5--8-8-----|

  E                 E                 Am/C               Am
|-----------------|-----------------|------------------|-----------------|
|-------------6-9-|-------------6-9-|------------------|-----------------|
|-7-7--2/-7-7-----|-7-7--2/-7-7-----|-------------7-10-|-----------------|
|-----------------|-----------------|-8-8--3/-8-8------|-5-5--5--8-5-8---|


 2nd Verse
[F# mixolydian]
  F#                F#                D                 D
|-----------------|-----------------|-----------------|-----------------|
|-----------------|-----------------|-----------------|-----------------|
|-9-9-6-7-9-9-6-7-|-9-9-6-7-9-8-7-6-|-5-5-----5-5-----|-5-5-----5-5-7-8-|
|-----------------|-----------------|-----4-5-----4-5-|-----4-5---------|

  F#                F#                D                 D
|-----------------|-----------------|-----------------|-----------------|
|-----------------|-----------------|-----------------|-----------------|
|-9-9-6-7-9-9-6-7-|-9-9-6-7-9-8-7-6-|-5-5-----5-5-----|-5-5-----5-5-5-5-|
|-----------------|-----------------|-----4-5-----4-5-|-----4-5---------|


 Pre-Chorus
[Dmajor part]:
  D       F#m       G       Bm/F#     Em      G/D       C       D
|-----------------|-----------------|-----------------|-----------------|
|---------4-4-4-4-|-5-5-5-5-4-4-4-4-|-2-2-2-2---------|-----------------|
|-5-5-5-5---------|-----------------|---------5-5-5---|-3-------5---6---|
|-----------------|-----------------|-----------------|-----3-----------|


 Chorus:
similar to previous, except for the very last bar:
  Am
|------------------|
|------------------|
|------------------|
|-5---7---8---10---|


 Bridge:
[Eminor]
|-----------------|--------------19---|-(19)----18------|-17-----16-------19---|
|-----------------|-------------------|-----------------|----------------------|
|-----------------|-----------14/-----|-----------------|-----------17h19------|
|-0---------------|-(0)---------------|-0---------------|-(0)------------------|

                                        Am                C        D
|-(19)----18------|-17-----16---------|-----------------|---------------------|
|-----------------|-------------------|-----------------|---------------------|
|-----------------|-------------------|-----------------|---------------------|
|-0---------------|-(0)---------------|-5-5-5-0-5-0-5-0-|-8-0-8-0-10-10-10-10-|


 Guitar Solo:
  E                 E                 Am/C               Am  -/B -/C -/D
|-----------------|-----------------|------------------|---2---4---5---7-|
|-------------6-9-|-------------6-9-|------------------|-----------------|
|-----------------|-----------------|-------------7-10-|-0---2---3---5---|
|-0-0--7--0-0-----|-0-0--7--0-0-----|-8-8--3/-8-8------|-----------------|


 Chorus:
[Emajor]
  E                 E                 Am/C               Am
|-----------------|-----------------|------------------|-----------------|
|-------------6-9-|-------------6-9-|------------------|-----------------|
|-----------------|-----------------|-------------7-10-|-------------5-6-|
|-0-0--0--0-0-----|-0-0--0--0-0-----|-8-8--3/-8-8------|-5-5--5--8-5-----|

  E                 E                 Am/C               Am
|-----------------|-----------------|------------------|-----------------|
|-------------6-9-|-------------6-9-|------------------|----(drum fill)--|
|-----------------|-----------------|-------------7-10-|-----------------|
|-0-0--7/-0-0-----|-0-0--7/-0-0-----|-8-8--3/-8-8------|-5\--------------|


 Ring Ring Beep Beep:
  E                 E                 Am/C              Am
|-----------------|-----------------|-----------------|------------------|
|-----------------|-----------------|-----------------|------------------|
|-----------------|---------7-6-5-4-|-3-3---3-3---3-3-|---------3---3-5/-|
|-0-0---0-0---0-0-|---0-0-----------|-----------------|-5-5-5-5---5------|

  E                 E                 Am/C              Am
|-----------------|-----------------|-----------------|------------------|
|-----------------|-----------------|-----------------|------------------|
|-----------------|---------7-6-5-4-|-3-3---3-3---3-3-|---------3---3-5/-|
|---0-0---0-0---0-|-0---0-0---------|-----------------|-5-5-5-5---5------|

  E7
|-----------------|
|-----------------|
|-(5)/----7-7-----|
|-----------------|


 Breakdown:
[Eminor]
|-----------------|-----------------|-----------------|
|-----------------|-----------------|-----------------|
|-----------------|-----------------|-----------------|
|-----------------|-----------------|-----------------|

|---------------------|---------------------|---------------------|
|---12h14-----12h14---|---12h14-----12h14---|-12---12---14---14---|
|---------------------|---------------------|---------------------|
|---------------------|---------------------|---------------------|

|---------------------------------------|
|---------------------------------------|
|-14--14--14--14--14-14-14-14-14-14-14--|
|---------------------------------------|


 Heavy Outro:
 These are 3-groupings.
  E                 E                 C                 Am
|-----------------|-----------------|-----------------|-----------------|
|-----------------|-----------------|-----------------|-----------------|
|-----------------|---------7-6-5-4-|-3-3---3-3---3-3-|---------3---3-5-|
|-0-0---0-0---0-0-|---0-0-----------|-----------------|-5-5-5-5---5-----|

                                                      (slow down from here)
  E                 E                 C                 Am
|-----------------|-----------------|-----------------|----------------------|
|-----------------|-----------------|-----------------|----------------------|
|-----------------|---------7-6-5-3-|---3-3---3-3-3-3-|-------------3---3-5/-|
|---0-0---0-0---0-|-0---0-0---------|--------3-------3|-5-5-5-5-5-5---5------|

  E
|-----------------|-----------------|-----------------|
|-----------------|-----------------|-----------------|
|-----------------|-----------------|-----------------|
|-0---------------|-(0)-------------|-(0)-------------|



Jon Sebastian Frederiksen - 23rd /July /09





Comments


Popular Feeling tabs & chords
Kettle's On Bass Tabs
Love It When You Call Bass Tabs
Don't Make Me Sad Chords
Love It When You Call 1 Chords
Rose 2 Chords
Sewn 2 Chords
Without You 1 Chords
Never Be Lonely Tabs
Dont Make Me Sad Ukulele
Without You Ukulele


Song lyrics



↑ Back to top | Tablatures and chords are parodies/interpretations of the original songs. You may use it for private study, scholarship, research or language learning purposes only
© 2014 AZChords.com Contact us | Privacy policy | DMCA | Add/correct tabs | Request tabs | Top 50 tabs