» » »

Feeder, Sweet Sixteen Tabs (ver.1)

Artists:  A B C D E F G H I J K L M N O P Q R S T U V W X Y Z # 

Sweet Sixteen Tabs (ver.1)

Feeder Tabs
 Rating:
4/5 (4 votes)
Sweet Sixteen lessons Tabs too difficult? Try these video lessons and learn fast
                Sweet Sixteen 
FEEDER

tuning drop d
   e	
   B
   G
   D
   A
   D

I used FZFACE of the gfx 707 to get the right effect
^ = bend 
INTRO

e|---------|
B|---------|
G|---------|
D|---------|
A|---------|
D|-5^---5^-|BEND FULL SEMITONE


e|--------------------------------|
B|--------------------------------|
G|--------3--3--33--------3--3--33|
D|55555555555555555555555555555555|
A|33333333-33-33--33333333-33-33--|
D|----------------0---------------|


VERSE
e|--------------------------------|
B|--------------------------------|
G|---7-55-7--7-575---7-55-7--7-575|
D|---7-77-7--7-7-----7-77-7--7-7--|
A|555-5--5-55-5---555-5--5-55-5---|
D|000-0--0-00-0---000-0--0-00-0---|

CHOURS
e|--------------------------------|
B|--------------------------------|
G|5-------5-------5-------10------|
D|5-------5-------5-------10------|
A|3-------7-------8-------12------|
D|--------------------------------|

BRIDGE
e|--------------------------------|
B|--------------------------------|
G|--------------------------------|
D|2-202-5---5558882-202-5---55587-|
A|2-202-5---5558882-202-5---55587-|
D|2-202-5---5558882-202-5---55587-|

SOLO
e|--------------------------------|
B|9-9797-------9-9797----10^------|
G|------8-7-57-------8--7---------|
D|--------------------------------|
A|--------------------------------|
E|--------------------------------|
Outro
e|--------------------------------|
B|--------------------------------|
G|--------------------------------|
D|0-------------------------------|
A|0-------------------------------|
D|0-------------------------------|
     let ring
            
Submit corrections

comments powered by Disqus
↑ Back to top | Feeder Tabs for Sweet Sixteen. Lyrics for acoustic guitar and electric guitar. Tablatures and chords are parodies/interpretations of the original songs. You may use it for private study, scholarship, research or language learning purposes only