» » »

Feeder, Silent Cry Chords (ver.1)

Artists:  A B C D E F G H I J K L M N O P Q R S T U V W X Y Z # 

Silent Cry Chords (ver.1)

Feeder Tabs
 Rating:
4/5 (4 votes)
Silent Cry lessons Tabs too difficult? Try these video lessons and learn fast
1
                -------------------------------------------------------------------------------
-------------------------------------------------------------------------------

Tuning: Standard e B G D A E
Capo: 3rd 


e|-------------13------------------------------13---------------------15-15-15-13------|
B|-15-15-15-13-----15-15-15-13-----15-15-15-13----15-15-15-13---------------------15---|
G|-----------------------------15------------------------------15-12-------------------|
D|-------------------------------------------------------------------------------------|
A|-------------------------------------------------------------------------------------|
E|-------------------------------------------------------------------------------------|

e|-------------15----15-13-------------------------15-15-15-15-13----------------------|
B|-------13-15----------------13-13-15-13-------------------------15-------------------|
G|-12-15----------12-------12----------------15-12-------------------------------------|
D|-------------------------------------------------------------------------------------|
A|-------------------------------------------------------------------------------------|
E|-------------------------------------------------------------------------------------|


Em	Cmaj7	Dsus9	Cmaj7 x2

Em	Cmaj7		Dsus9	Cmaj7		Em	
Silence the cry stepping back further,
Cmaj7		  Dsus9 Cmaj7 Em
Escape from the mind, my mind,
Cmaj7		Dsus9	Cmaj7	  Em
Twisting inside looking for shelter,
Cmaj7	   Dsus9	Cmaj7
Find the divide in me,

Em	Cmaj7	Dsus9	Cmaj7 x2

D Em	 	  D	   Cmaj7			Em
Oh my god what have I done, one step now the damage is done,

Em		Cmaj7
It's silent without you, 
G		    Am
It burns through each and everyday,
Cmaj7	 Em
it takes my breath away,
Cmaj7		   G
So lonely without you there's no view,
Am
Colours just fading to grey,
Cmaj7
It takes my breath away,

Em	Cmaj7	Dsus9	Cmaj7 x2

Em	Cmaj7		Dsus9	Cmaj7		Em	
I was so blind I should have seen it,
Cmaj7		  Dsus9 Cmaj7 Em
Notice the life, my life,
Cmaj7		Dsus9	Cmaj7	  Em
I had to climb stepping up further,
Cmaj7	   Dsus9	Cmaj7
To find the divide in me,

D Em	 	  D	   Cmaj7			Em
Oh my god what have I done, one step now the damage is done.


Em		Cmaj7
It's silent without you,
G		    Am
It burns through each and everyday,
Cmaj7	 Em
It takes my breath away,
Cmaj7		   G
So lonely without you there's no view,
Am
Colours just fading to grey,
Cmaj7
It takes my breath away,


Em
They ask too much of us,
G
But then you always knew,
Cmaj7
Just want to live our lives,
G
You know we’re trying to,
Em
We put our faith in you,
		G
Our courage and our strength,
Cmaj7
To find new ways to care,
G
Until this story ends,

Em	Cmaj7	G	Am

Cmaj7		   G
It takes my breath away,
Am
It's silent without you,
G		Am
It burns through each and everyday,
G
It takes my breath away,

Em	Cmaj7	G	Am
Ooooooo

G
It takes my Breath away.

Em	Cmaj7	Dsus9	Cmaj7 x2
            
Submit corrections

comments powered by Disqus
↑ Back to top | Feeder Chords for Silent Cry. Lyrics for acoustic guitar and electric guitar. 1 Tablatures and chords are parodies/interpretations of the original songs. You may use it for private study, scholarship, research or language learning purposes only