» » »

Save Us Tabs (ver.3)

Artists:  A B C D E F G H I J K L M N O P Q R S T U V W X Y Z # 

Save Us Tabs (ver.3)

Feeder
Rating:
0/5 (0 votes)

Hard to play? Try these video lessons and learn fast.
                Feeder - Save Us guitar tab

Standard Tuning (EADGBE)

Intro/Verse

e|--------------------------------------------------------|
B|--------------------------------------------------------|	Listen to song and work out
G|------------------------14-14-14-14-11-11-11-11-7-7-7-7-|	strumming pattern
D|------------------------14-14-14-14-11-11-11-11-7-7-7-7-|
A|--12-12-12-12-12-12-12--12-12-12-12-9--9--9--9--5-5-5-5-|
E|--------------------------------------------------------|
					x8

Chorus                         Then

e|-----------|      e|-------------|	Again work out rhythm and timing for chorus
B|-----------|      B|-------------|
G|-----------|  x3  G|------4---7--|
D|--7---4--2-|      D|--7---4---7--|
A|--7---4--2-|      A|--7---2---5--|
E|--5---2--0-|      E|--5----------|


Solo

e|----------------------|x4 	|------------|
B|----------------------|   	|------------|
G|-2-4-4-4-2--2-4-4/6br-|   	|-6b-6b-6b-6b|
D|----------------------|   	|------------|
A|----------------------|   	|------------|
E|----------------------|   	|------------|


Thanks for looking
            
Hard to play? Try these video lessons and learn fast. | Correct




comments powered by Disqus
↑ Back to top | Tablatures and chords are parodies/interpretations of the original songs. You may use it for private study, scholarship, research or language learning purposes only