» » »

Feeder, Buck Roger Tabs (ver.3)

Artists:  A B C D E F G H I J K L M N O P Q R S T U V W X Y Z # 

Buck Roger Tabs (ver.3)

Feeder Tabs
 Rating:
4/5 (8 votes)
Buck Roger lessons Tabs too difficult? Try these video lessons and learn fast
1
                Feeder, Buck rogers.
  

#------------------------------------------------------------------------------##
#

artist : Feeder
song : Buck Rogers
album : Echo park


note : There's nothing special except a strange keyboard. You can play the pre-chorus and the chorus with one or two guitars : just choose.

/ : slide
b : bend
r : release bend
h : hammer
p : pull-off

chords :
E5(022xxx)
G#5(466xxx)
A5(577xxx)
B5(799xxx)
e5(0799xx)
C#5(91111xxx)

INTRO (clean) :
E5-G#5-A5x2

VERSE 1 :
guitar1(clean) plays E5-G#5-A5x4
guitar2(distorted) plays riff1x4
riff1 :
e/---------------------------------------------------------------------------
b/12---12---12---12---11---11---10---10----------------------------
g/----9----9----9-----9-----9-----9-----9----9--------------------------
d/---------------------------------------------------------------------------
a/---------------------------------------------------------------------------
E/---------------------------------------------------------------------------

PRE-CHORUS 1 (distorted) :
E5-G#5-A5x2 then B5-A5 (let ring) and play riff2x1
riff2 :
e/---------------------------------------------------------------------------
b/---------------------------------------------------------------------------
g/---------------------------------------------------------------------------
d/--7b-7b-7b-7b-7b-7b-7b----------------------------------------------
a/---------------------------------------------------------------------------
E/---------------------------------------------------------------------------

CHORUS 1 (distorted) :
e5-B5-C#5-A5 and e5-B5-A5 x1

PRE-VERSE 1 (distorted) :
play E5 and riff3 x2
riff3 : 
e/---------------------------------------------------------------------------
b/---4--4---4--4---5--5--5-----------------------------------------------
g/---6b-6b-6b-6b-7b-7b-7b---------------------------------------------
d/---------------------------------------------------------------------------
a/---------------------------------------------------------------------------
E/---------------------------------------------------------------------------

VERSE 2 : 
same as verse 1

PRE-CHORUS 2 (distorted) :
same as pre-chorus1

CHORUS 2 (distorted) :
e5-B5-C#5-A5 and e5-B5-A5 x2

BRIDGE (clean) :
play riff 4 x1
riff 4 :
e/----------------------------------------------------------------------------
b/----------------------------------------------------------------------------
g/-13-13-13-11-11-11--------------------------13-13-13-11-11-11-
d/--------------------------13-13-13-11-11-11--------------------------
a/----------------------------------------------------------------------------
E/----------------------------------------------------------------------------

e/----------------------------------------------------------------------------
b/----------------------------------------------------------------------------
g/---------------------------13-13-13-11-11-11-------------------------
d/-13-13-13-14-14-14---------------------------13-13-13-11-11-11
a/----------------------------------------------------------------------------
E/----------------------------------------------------------------------------

e/----------------------------------------------------------------------------
b/----------------------------------------------------------------------------
g/-13-13-13-11-11-11---------------------------------------------------
d/---------------------------13-13-13-13-13-13-------------------------
a/----------------------------------------------------------------------------
E/----------------------------------------------------------------------------

PRE-CHORUS 3 (distorted) :
E5-G#5-A5 x2

CHORUS 3 (distorted) :
same as chorus2

OUTRO (distorted) :
E5 and riff3 x1

NB : Sorry for the bad english 'cause I'm french...
 
            
Submit corrections

comments powered by Disqus
↑ Back to top | Feeder Tabs for Buck Roger. Lyrics for acoustic guitar and electric guitar. 1 Tablatures and chords are parodies/interpretations of the original songs. You may use it for private study, scholarship, research or language learning purposes only