>
 >
Torjia

Torjia Guitar Tabs

Federico Moreno Torroba - Torjia chords, tabs, tablatures, lyrics

Guitar lessons | Add/correct | Request | Top 50 tabs Artists:  A B C D E F G H I J K L M N O P Q R S T U V W X Y Z 0-9

Torjia Guitar Tabs – Federico Moreno Torroba

CD, Sheet music, Poster

Do you like Torjia? Share with your friends now
Tabs
Torija (Elegia) - from Castles of Spain, Volume 1
Federico Moreno Torroba (1891-1982)


- the original tab included the frets that were to be barred for the various
chords (eg. VII means barre at the 7th fret) but the tablature didn't match
up so I matched them up. It's easier to play now.

- changed fingerings and added a couple slides so it sounds smoother, 
measures 8, 14, and 24.
- changed incorrect note in measure 10 last note from A to A#


6th=D

Largo

                                II_ _ _ _ _
1
E-------0--|--2--------------7--5-----|--2--------------------0-|
B----3-----|-----------------------3--|--------------------3----|
G-2--------|--------------------------|-----------------2-------|
D----------|--------0--2--4--5--2-----|--------2--0--4----------|
A----------|-----0-----------------2--|-----0--------------2----|
D----------|--0-----------------------|--0----------------------|
  p
  express _ _ _ _ _ _ _ _ _ _ _ _ _ _ _

                                                   VII_ _   VII IX_  VII
4
E-1--------0-------------|----------------2--3--5-|-7--------9----------|
B-------------3--------0-|-3----------------------|-7-----0--7-10-10-8--|
G-------1-----------0----|------------------------|-7--------7-9--9--7--|
D----0-----------2-------|-------0-----4--0--2--4-|----------7-11-11-9--|
A-1-----------0----------|----0-----0-------------|----9-------9--9--7--|
D------------------------|-0----------------------|-9-------------------|
                                                    mf

  IX_ _ _ _ _ _     I_
7                                                                  arm.
E----------------------0-|-2--------3--0--------------|-----------------|
B-10-------------3--3----|-------0--------------2-/-7-|-3---------------|
G-9-----------------1----|----0--------------0--------|-----------------|
D-11---------------------|----------------------------|-4-----------<7>-|
A-9-----------------1----|-0-----------0--------------|----0--0--0------|
D----9--9--9--9----------|----------------------------|-0---------------|


                             VI_  _  _  _  _  _  _  _  _  _  _  _ _ _ _ _
10 piu animato                                     a tempo
E----------------------6-|-------------6---------|----------9-----------9-|
B-------0--4--2--6--7----|----------6-----9--7^6-|----6--7--------6--7----|
G----3-------------------|-------6---------------|----6-----------6-------|
D----4-------------------|----6------------------|------------------------|
A-4===-------------------|-----------------------|------------------------|
D------------------------|-9---------------------|-8-----------7----------|


  VI_  _  _  _  _  _  _  _  _  _  _ _              I_ _ _ _
13 cresc.                 a tempo
E-----------------------|-6--------------------|----1-1-1-----2-2-2-|
B------------------7^6--|-------------------9--|----2-2-2-----3-3-3-|
G------------8^6--------|-------8--------------|----1-1-1-----0-0-0-|
D-------8^6-------------|----------8-/-10------|--------------------|
A----8------------------|----8------------9----|-4---------2--------|
D-6---------------------|-6--------------------|--------------------|



16 piu animato                         a tempo
E---0-2-0--5--3--2--0-|-5--------------------0-|-2---------------7--5----|
B---3-3-3-------------|-2-----------------3----|-----------------------3-|
G---0-0-0-------------|-0--------------2-------|-------------------------|
D---------------------|------------------------|--------0--2--4--5--4----|
A-1-------------------|----0--0--0--0----------|-----0-----------------2-|
D---------------------|------------------------|-0-----------------------|
    espr.
    rit. _ _ _ _ _ _ _                 p

19
E-2--------------------0-|-1--------0-------------|----------------2--3--5-|
B-------------------3----|-------------3--------0-|-3----------------------|
G----------------2-------|-------1-----------0----|------------------------|
D-------2--0--4----------|----0-----------2-------|-------0-----4--0--2--4-|
A----0--------------2----|-1-----------0----------|----0-----0-------------|
D-0-----------0----------|------------------------|-0----------------------|


  VI_ _  VII IX _ VII  IX _ _ _ _       I _
22
E-7--------9---------|---------------------0-|-2--------3--0-------------|
B-7-----0--7-10-10-8-|-10------------3--3----|-------0-------------------|
G-7--------7-9--9--7-|-9----------------1----|----0-----------0--2-/-11--|
D----------7-11-11-9-|-11--------------------|---------------------------|
A----9-------9--9--7-|-9----------------1----|-0-----------0-------------|
D-9------------------|----9--9--9--9---------|---------------------------|
mf

                              II _ _ _ _ _
25
E-------------7--0--5--3-|-2-----------0--3--5--3-|
B-3-----------0----------|----3--3--3--3----------|
G------------------------|-------------0----------|
D-4-----------7----------|------------------------|
A----0--0--0--8----------|----2--2--2--1----------|
D-0----------------------|-0----------------------|


                   VII       8va
27                arm.   arm.                    arm.
E-7--------10----------|-----------------------|--------------------||
B----5--8------8--<12>-|-<7>-------------------|--------------------||
G----4---------7-------|-<7>-------------------|--------------------||
D----0---------9-------|-<7>-------------------|-<12>---------------||
A--------------7-------|-----------------------|--------------------||
D----------------------|-0---------------------|--------------------||





Comments


Popular Federico Moreno Torroba tabs & chords
Castles Of Spain Vol 1 - 1 Turegano Serranilla Tabs
Castles Of Spain Vol 1 - 4 Montemayor Tabs
Castles Of Spain Vol 1 - 7 Alba De Tormes Tabs
Siete Piezas - 3 Rumor De Copla Tabs
Siete Piezas - 4 Aire Vasco Tabs
Siete Piezas - 5 Ay Malaguena Tabs
Siete Piezas - 6 Chisperada Tabs
Siete Piezas - 7 Bolero Menorquin Tabs
Sonatina In A - 3 Allegro Tabs
Suite Castellana - Arada Tabs


Song lyrics



↑ Back to top | Tablatures and chords are parodies/interpretations of the original songs. You may use it for private study, scholarship, research or language learning purposes only
© 2014 AZChords.com Contact us | Privacy policy | DMCA | Add/correct tabs | Request tabs | Top 50 tabs