» » »

Castles Of Spain Vol 1 - 7 Alba De Tormes Tabs (ver.1)

Artists:  A B C D E F G H I J K L M N O P Q R S T U V W X Y Z # 

Castles Of Spain Vol 1 - 7 Alba De Tormes Tabs (ver.1)

Federico Moreno Torroba
Rating:
0/5 (0 votes)

Hard to play? Try these video lessons and learn fast.
                Alba de Tormes (Trova)

Federico Moreno Torroba
Castles of Spain Vol. 1

2/4 time

1
E---------------2-------|--------------2-------|-----------------2-------------|
B---------------2-------|--------------4-------|-----------------0-------------|
G-----------2-----------|----------2-----------|----------0--------------------|
D----0------------------|----------------------|------------------------0------|
A-------------------0---|---2------------------|-------------------------------|
E-----------------------|------------------2---|---0---------------------------|

4
E--------3---7-------|-----------2-------|-------------------|-----------0-----|
B--------5-------2---|-----------2-------|-----------3-------|-------2---------|
G--------4-------0---|-------2-----------|-----------1-------|-------1---------|
D--------------------|---0---------------|-------3-----------|-------2---------|
A----0---------------|---------------0---|---1---------------|-----------------|
E--------------------|-------------------|---------------1---|---2-----------2-|

8
E------------2-------|-----------1-------|-------0---3---2---|---5---3---2---3-|
B--------4-----------|-------3---2-------|-------0---3---2---|---7---3---2---3-|
G------------3-------|-------1-----------|-------0---4---2---|-------4---2---4-|
D--------4-----------|-------------------|-------------------|---7-------------|
A----2-----------2---|---1-----------1---|---0---------------|---0-------------|
E--------------------|-------------------|-------------------|-----------------|

12
E----0-------2-------|-----------2-------|-----------2-------|-----------2-----|
B----0-------2-------|-----------2-------|-----------4-------|-----------0-----|
G----0-------2-------|-------2-----------|-------2-----------|-------0---------|
D--------------------|---0---------------|-------------------|-----------------|
A----0---0-------0---|---------------0---|---2---------------|-----------------|
E--------------------|-------------------|---------------2---|---0-------------|

16
E--------3---7-------|-----------2-------|-----------3-------|-----------3-----|
B--------5-------2---|-----------2-------|-------3-----------|-------3---------|
G--------4-------0---|-------2-----------|-------3-----------|-------3---------|
D--------------------|---0---------------|-------------------|---------------0-|
A----0---------------|---------------0---|---3---------------|---3-------------|
E--------------------|-------------------|---------------3---|-----------------|

20
E--------------------|-------------------|-------3---6-------|-------3---6-----|
B--------------------|-------------------|-------4-----------|-------4---------|
G--------------------|-------------------|-------------------|-----------------|
D----3---2---0-------|-------2p0---------|-------------------|---3-------------|
A----------------3---|---2h3-------3-----|---3-----------3---|---------------3-|
E--------------------|-------------------|-------------------|-----------------|

24
E--------------------|-------------------|-------1---4-------|-----------4-----|
B--------------------|----1--------------|-------1---6-------|-------4---5-----|
G------------0---3---|--3--3---2---0-----|-------1---5-------|-------4---4-----|
D----0---1-----------|-----------------3-|---------------1---|-------4---------|
A--------------------|-------------------|---1---------------|---1-------------|
E--------------------|-------------------|-------------------|-----------------|

28
E--------------------------|----------1------3------4---|-------2---3----------|
B--------3------1------3---|---4------1------3------6---|----------------------|
G--------1------1------1---|---3------1------3------5---|-------3--------------|
D--------3------1------3---|---5------------------------|---1--------------1---|
A----1---------------------|----------------------------|----------------------|
E--------------------------|----------------------------|----------------------|

31                      arp.
E-------5---6--------|-------0---2---0---|---7---5---3--2----|---0-------2-----||
B-------3------------|---0---------------|---0---------------|---0-------2-----||
G--------------------|---0---------------|---0---------------|---0-------2-----||
D----2-----------2---|---0---------------|---0---------------|-----------------||
A--------------------|---0---------------|---0---------------|-------0-------0-||
E--------------------|-------------------|-------------------|-----------------||

35
E------------2-------|-----------2-------|-----------2-------|-------3---7-----|
B--------------------|-----------4-------|-----------0-------|-------5-------2-|
G--------2---2-------|-------2-----------|-------0-----------|-------4-------0-|
D----0---------------|-------------------|---------------0---|-----------------|
A----------------0---|---2---------------|-------------------|---0-------------|
E--------------------|---------------2---|---0---------------|-----------------|

39
E-----------2--------|-------------------|-----------0-------|-------1---3---1-|
B-------2---2--------|-----------3-------|-------0-----------|-------1---1---1-|
G--------------------|-----------1-------|-------0-----------|-------1---1---1-|
D---0----------------|-------3-----------|-------------------|---0-------------|
A---------------0----|---1-----------1---|---0-----------0---|-----------------|
E--------------------|-------------------|-------------------|-----------------|

43
E-------0-------2----|-----------2-------|-----------2-------|---------2--5--|-9--------||
B-------3-------2----|-----------2-------|-------2---2-------|------2--2--7--|-10-------||
G-------1-------0----|-------2-----------|-------------------|------2--2--6--|-11-------||
D--------------------|---0---------------|---0---------------|---0-----------|------<12>||
A---1-------0--------|---------------0---|---------------0---|---------------|----------||
E--------------------|-------------------|-------------------|---------------|----------||
            
Hard to play? Try these video lessons and learn fast. | Correct




comments powered by Disqus
↑ Back to top | Tablatures and chords are parodies/interpretations of the original songs. You may use it for private study, scholarship, research or language learning purposes only