>
 >
Suite Castellana - Danza Preambulo

Suite Castellana - Danza Preambulo Guitar Tabs

Federico Moreno Torroba - Suite Castellana - Danza Preambulo chords, tabs, tablatures, lyrics

Guitar lessons | Add/correct | Request | Top 50 tabs Artists:  A B C D E F G H I J K L M N O P Q R S T U V W X Y Z 0-9

Suite Castellana - Danza Preambulo Guitar Tabs – Federico Moreno Torroba

CD, Sheet music, Poster

Do you like Suite Castellana - Danza Preambulo? Share with your friends now
Tabs
SUITE CASTELLANA - DANZA
Moreno Torroba

Arranged by Andres Segovia

 Vivo

|-------|-------|-------|-------||--4-4-4-|--0--2-4-|-5-4-5p4-|--2--4-2--|
|-------|-------|-------|-------||--------|---------|---------|----------|
|-------|-------|-------|-------||*-4-----|---------|-4-------|----------|
|-2-2-2-|-2-2-2-|-2-2-2-|-2-2-2-||*-2-----|---------|-2-------|----------|
|-------|-------|-------|-------||--------|---------|---------|----------|
|-------|-------|-------|-------||--0-----|---------|---------|----------|

|----------|---------|--------|-----|-4-4-4-|--0--2-4-|-5-4-5p4-|--2--4-2-|
|-7-5-4-5--|---------|--------|--5--|-------|---------|---------|---------|
|----------|---------|--------|-----|-4-----|---------|-4-------|---------|
|-6--------|--6----6-|------6-|-----|-2-----|---------|-2-------|---------|
|-4--------|-----4---|--4-----|-----|-------|---------|---------|---------|
|----------|---------|--------|-----|-0-----|---------|---------|---------|

|----------|---------|--------|-----|-9-9-9-|-----7-9-|-10-9-10p9-|--7--9----|
|-7-5-4-5--|---------|--------|--5--|-------|-10------|-----------|-------10-|
|----------|---------|--------|-----|-9-----|---------|--9--------|----------|
|-6--------|--6----6-|------6-|-----|-7-----|---------|--7--------|----------|
|-4--------|-----4---|--4-----|-----|-0-----|---------|-----------|----------|
|----------|---------|--------|-----|-------|---------|-----------|----------|

|-7-5-4-5--|---------|--------|--5--|-------|---------|---------|---------|
|----------|---------|--------|-----|-7-7-7-|-------7-|-9-7-9p7-|-----7---|
|-6--------|--6----6-|------6-|-----|-------|--8--9---|---------|--9----9-|
|-4--------|-----4---|--4-----|-----|-7-----|---------|-7-------|---------|
|----------|---------|--------|-----|-------|---------|---------|---------|
|----------|---------|--------|-----|-7-----|---------|-7-------|---------|

  1._________________________________  2.__________________________________
|----------|---------|--------|------||-5-4-2-4--|---------|----4-|--------||
|----------|---------|--------|--7---||----------|---------|----5-|--------||
|-9-8-6-8--|---------|--------|-----*||-4--------|--4----4-|----4-|--------||
|-7--------|---------|------9-|-----*||----------|---------|------|--------||
|----------|--9----9-|--------|------||----------|-----7---|-7--7-|--------||
|-7--------|-----7---|--7-----|------||-0--------|---------|------|--------||

    Expressivo

||--5-5-5-|-5p4h5------|----------------0-|-2h4-0-2--|-7-7-7-|
||--5-----|-4-----7-12-|------10-10-9-9---|-4--------|-5-----|
||*-6-----|-4----------|---9--------------|----------|-------|
||*-4-----|------------|--11--------------|----------|-6-6-6-|
||--------|------------|---9--------------|-2--------|-------|
||--------|------------|------------------|----------|-------|

|-7-9-5-7-9-|-----12-12-11-11-9-|-7-9-5-7--|-<12>------|-11-12-9-11--|
|-----------|-------------------|-5--------|-<12>-10-9-|--9----------|
|-9---------|-------------------|----------|-----------|-------------|
|-6-7-4-6-7-|-----11-11--9--9-7-|-6-7-4-6--|--11-------|--9----------|
|-----------|-------------------|----------|-----------|-------------|
|-0---------|--0----------------|----------|-----------|-------------|

                                       Vivo 
|----)--9--9--9--9--9-|-7--9-5-7----||-------|-------|-------|-------|
|------10-10-10-10-10-|-9-10-7-9----||-------|-------|-------|-------|
|-------9--9--9--9--9-|------------*||-------|-------|-------|-------|
|---------------------|----------9-*||-9-9-9-|-9-9-9-|-9-9-9-|-9-9-9-|
|---------------------|-------------||-------|-------|-------|-------|
|---7-----------------|-0-----------||-------|-------|-------|-------|

|-9-9-9-|--------9-|-11-9-11p9-|-----9----|--------------|-------|-------|
|-------|-10--12---|-----------|-12----10-|-12--10-9-10--|-------|-------|
|-9-----|----------|--9--------|----------|--------------|-------|-------|
|-9-----|----------|--9--------|----------|--------------|-------|-------|
|-------|----------|-----------|----------|--------------|-2-2-2-|-2-2-2-|
|-------|----------|-----------|----------|--------------|-------|-------|

|-------|-------|-4-4-4-|--0--2-4-|-5-4-5p4-|--2--4-0-|----------|
|-------|-------|-------|---------|---------|---------|-7-5-4-5--|
|-------|-------|-4-----|---------|-4-------|---------|----------|
|-------|-------|-2-----|---------|-2-------|---------|-6--------|
|-2-2-2-|-2-2-2-|-------|---------|---------|---------|-4--------|
|-------|-------|-0-----|---------|---------|---------|----------|

|-------|--------|-----|-4-4-4-|--0----4-|-5-4-5p4-|-----4-0-|------------|
|-5-----|--------|--5--|-------|-----7---|---------|--7------|------------|
|-------|--------|-----|-4-----|---------|-4-------|---------|-11-9----9--|
|-6---6-|------6-|-----|-------|---------|---------|---------|------13----|
|---4---|--4-----|-----|-7-----|---------|-7-------|---------|-11---------|
|-------|--------|-----|-0-----|---------|---------|---------|--9---------|

|----------|---------|-----|-9-9-9-|-----7-9-|-10-9-10p9-|--7--9----|
|----------|---------|-----|-------|-10------|-----------|-------10-|
|----------|---------|--9--|-9-----|---------|--9--------|----------|
|----------|---------|-----|-7-----|---------|--7--------|----------|
|-11----11-|------11-|-----|-0-----|---------|-----------|----------|
|-----9----|--9------|-----|-------|---------|-----------|----------|

|-7-5-4-5--|---------|--------|--5--|-------|---------|---------|---------|
|----------|---------|--------|-----|-7-7-7-|-------7-|-9-7-9p7-|-----7---|
|-6--------|--6----6-|------6-|-----|-------|--8--9---|---------|--9----8-|
|-4--------|-----4---|--4-----|-----|-7-----|---------|-7-------|---------|
|----------|---------|--------|-----|-------|---------|---------|---------|
|----------|---------|--------|-----|-7-----|---------|-7-------|---------|

|----------|---------|--------|-----|-----------|---------|----12-|---------||
|----------|---------|--------|--7--|-10-9-7-9--|---------|-----9-|---------||
|-9-8-6-8--|---------|--------|-----|-----------|---------|-------|---------||
|-7--------|--7----7-|------7-|-----|--9--------|--9----9-|-----9-|---------||
|----------|---------|--------|-----|-----------|-----7---|-------|---------||
|-7--------|-----7---|--7-----|-----|--0--------|---------|-0--12-|---------||





Comments


Popular Federico Moreno Torroba tabs & chords
Castles Of Spain Vol 1 - 1 Turegano Serranilla Tabs
Castles Of Spain Vol 1 - 2 Torija Elegia Tabs
Castles Of Spain Vol 1 - 3 Manzanares El Real Tabs
Castles Of Spain Vol 1 - 4 Montemayor Tabs
Castles Of Spain Vol 1 - 7 Alba De Tormes Tabs
Nocturno Tabs
Siete Piezas - 2 Minueto Del Majo Tabs
Siete Piezas - 6 Chisperada Tabs
Siete Piezas - 7 Bolero Menorquin Tabs
Sonatina In A - 2 Andante Tabs


Song lyrics



↑ Back to top | Tablatures and chords are parodies/interpretations of the original songs. You may use it for private study, scholarship, research or language learning purposes only
© 2014 AZChords.com Contact us | Privacy policy | DMCA | Add/correct tabs | Request tabs | Top 50 tabs