>
 >
Siete Piezas - 6 Chisperada

Siete Piezas - 6 Chisperada Guitar Tabs

Federico Moreno Torroba - Siete Piezas - 6 Chisperada chords, tabs, tablatures, lyrics

Guitar lessons | Add/correct | Request | Top 50 tabs Artists:  A B C D E F G H I J K L M N O P Q R S T U V W X Y Z 0-9

Siete Piezas - 6 Chisperada Guitar Tabs – Federico Moreno Torroba

CD, Sheet music, Poster

Do you like Siete Piezas - 6 Chisperada? Share with your friends now
Tabs
As recorded by Federico Moreno Torroba

Music by Federico Moreno Torroba

|-----0-----0-|-----------0-|-----0-----0-|
|---1-----0---|-----3-----0-|---1-----0---|
|---2-----0---|---2-------1-|---2-----0---|
|---2---------|---3---------|---2---------|
|-0-----------|---------2---|-0-----------|
|-------3-----|-1-----0-----|-------3-----|

|-----------0-|-----0-----0-|-----------0-|-----------0--|
|-----3-----0-|---1-----0---|-----3-----0-|-----3-----0--|
|---2-------1-|---2-----0---|---2-------1-|---2-------1--|
|---3---------|---2---------|---3---------|---3----------|
|---------2---|-0-----------|-0-------2---|-0-------2----|
|-1-----0-----|-------3-----|-------0-----|-------0------|

|---------------0--|-0-----0-----|-1-----1-3p1-0---|
|---1-0---------0--|-1-----------|---------------3-|
|-2-----2-0-----1--|-2-----1-----|-2-----2---------|
|-----------3------|-------------|-------0---------|
|-3----------------|---0-0---2-2-|---3-3-----------|
|-------------0----|-------------|-----------------|

|-0-1p0-------0-------|-----------------0-|-0-----0------|
|-1-----3-1-3---3-1-0-|---1-0-----------0-|-1------------|
|-2---------1---------|-2-----2-0-------1-|-2-----1------|
|-2-------------------|-----------3-------|--------------|
|---------------------|-3-------------2---|---0-0---2-2--|
|-----------0---------|-------------0-----|--------------|

           To Coda
|-0-----1-3p1-0---||-0-1p0-------0-------|---0-0-0-----|
|---------------3-||-------3-1-3---3-1-0-|-1-------3-1-|
|-0-----2---------||---------------------|-0-----------|
|-------0---------||-----------3---------|-2-----------|
|---4-4-----------||-3-------------------|-3-----------|
|-----------------||-----------3---------|-------------|

|---------------|-------------|-------0-------|-----------0-|
|-0-0-0-0-0-----|-0-----0-----|-0-0-0---3-----|-0-------0---|
|-------------2-|-------------|-------------2-|-------1-----|
|-----2---0-3---|-----2---0-3-|-----2-3---3---|-----2-------|
|---0-----------|---2---------|---2-----------|---2---------|
|-0-----1-------|-0-----1-----|-0-------------|-0-----------|

|-5-5-5-5-3-1-|-0--0-----5-5-|-3--3-1--1-|-0---------3-1--|
|-6-6-6-6-5-3-|-1--1---------|-0--0------|-----------0----|
|-------------|----------5-5-|------2--2-|-1-----------2--|
|-------------|----2---------|-----------|---2----2-------|
|-------------|--------------|-----------|-----2----------|
|-------------|----3---------|-----------|----------------|

|-0---------3-1-|-5-3-5-3-1--|-0---------3-1-|-0---------3-1--|
|-----------0---|-6-5-6-5-3--|-----------0---|-----------0----|
|-1-----------2-|------------|-1-----------2-|-1-----------2--|
|---2----2------|------------|---2----2------|---2----2-------|
|-----2---------|------------|-----2---------|-----2----------|
|---------------|------------|---------------|----------------|

|-5-3-5-3-1--|-0-----------|-------------|--------------|
|-6-5-6-5-3--|-1-----------|-3-----------|-1------------|
|------------|---0-0-0h2-0-|-4-----------|-1------------|
|------------|-------------|-------------|---3-3-3h5-3--|
|------------|-------------|-------------|--------------|
|------------|-------------|---3-3-3h5-3-|--------------|

|-------------|---0-0-0-0-0-0-0-0-0-0-0-|-0-0-0-0-0-0-0-0-0-0-0-0-|
|-1-----------|-------------------------|-------------------------|
|-1-----------|-------------------------|-----------------2---1---|
|---3-3-3p2-1-|-2-----------------------|-----0---2---3-----------|
|-------------|-----------------0---2---|-3-----------------------|
|-------------|-------------4-----------|-------------------------|

|---0-0-0-0-0-0-0-0-0-0-0-|-0-0-0-0-0-0-0-0-0-0-0-0-|-----0---3-1-|
|-------------------------|-------------------------|---0-----0---|
|-------------------------|-----------------2---1---|---1-------2-|
|-2-----------------------|-----0---2---3-----------|-2-----------|
|-----------------0---2---|-3-----------------------|-------------|
|-------------4-----------|-------------------------|-------0-----|

|-----0---3-1-|-5-3-5-3-1--|-0---------3-1-|-0---------3-1--|
|---0-----0---|-6-5-6-5-3--|-----------0---|-----------0----|
|---1-------2-|------------|-1-----------2-|-1-----------2--|
|-2-----------|------------|---2----2------|---2----2-------|
|-------------|------------|-----2---------|-----2----------|
|-------0-----|------------|---------------|----------------|

|-5-3-5-3-1--|-0-----------|-------------|--------------|
|-6-5-6-5-3--|-1-----------|-3-----------|-1------------|
|------------|---0-0-0h2-0-|-4-----------|-1------------|
|------------|-------------|-------------|---3-3-3h5-3--|
|------------|-------------|-------------|--------------|
|------------|-------------|---3-3-3h5-3-|--------------|

|-------------|---0-0-0-0-0-0-0-0-0-0-0-|-0-0-0-0-0-0-0-0-0-0-0-0-|
|-1-----------|-------------------------|-------------------------|
|-1-----------|-------------------------|-----------------2---1---|
|---3-3-3p2-1-|-2-----------------------|-----0---2---3-----------|
|-------------|-----------------0---2---|-3-----------------------|
|-------------|-------------4-----------|-------------------------|

|---0-0-0-0-0-0-0-0-0-0-0-|-0-0-0-0-0-0-0-0-0-0-0-0-|
|-------------------------|-------------------------|
|-------------------------|-----------------2---1---|
|-2-----------------------|-----0---2---3-----------|
|-----------------0---2---|-3-----------------------|
|-------------4-----------|-------------------------|

|-1h3-1-0-----|-1h3-1-0-----|-------------|
|-------1-----|-------1-----|-1h3-1-0-----|
|-2-----0-----|-2-----0-----|-2-----2-----|
|-2-----------|-2-----------|-2-----1-----|
|---------3-3-|---------3-3-|-------------|
|-------------|-------------|---------2-2-|

|-------------|-------------|---0-0-3-3-3-|
|-1h3-1-0-----|-------------|---0-0-1-1-1-|
|-2-----2-----|-------------|---1-1-2-2-2-|
|-2-----1-----|-------2-2-1-|-2-----------|
|-------------|-0-2-3-------|-------------|
|---------2-2-|-------------|-------------|

                            D.C. al Coda
|---3-3-1-1-1-|-0-----0-----|-0-----0-----||
|---3-3-1-1-1-|---0-----3---|---1-----0---||
|---4-4-2-2-2-|-----1-----0-|-----2-----1-||
|-------------|-------------|-------------||
|-------------|-------------|-------------||
|-0-----------|-0-----------|-------------||

  &
|-------------|-------------|-0-------|-0------------|
|-1-----------|-------0-1-3-|---------|--------------|
|-0-----------|---1-2-------|-----3---|-2------------|
|-2-------0-2-|-4-----------|-----5---|-3------------|
|---0-2-3-----|-------------|-----3---|-------0-2-3--|
|-------------|-------------|---------|---1-3--------|

|-------------|-------0---|----0---|-5---------||
|-----------0-|-1---1-----|----3---|-5---------||
|-------0-2---|-----------|----1---|-5---------||
|-0-2-3-------|---2-------|----2---|-7---------||
|-------------|-----------|--------|-----0-----||
|-------------|-----------|--------|-----------||





Comments


Popular Federico Moreno Torroba tabs & chords
Castles Of Spain Vol 1 - 1 Turegano Serranilla Tabs
Castles Of Spain Vol 1 - 3 Manzanares El Real Tabs
Castles Of Spain Vol 1 - 4 Montemayor Tabs
Nocturno Tabs
Siete Piezas - 2 Minueto Del Majo Tabs
Siete Piezas - 3 Rumor De Copla Tabs
Siete Piezas - 7 Bolero Menorquin Tabs
Sonatina In A - 2 Andante Tabs
Suite Castellana - Arada Tabs
Suite Castellana - Fandanguillo Tabs


Song lyrics



↑ Back to top | Tablatures and chords are parodies/interpretations of the original songs. You may use it for private study, scholarship, research or language learning purposes only
© 2014 AZChords.com Contact us | Privacy policy | DMCA | Add/correct tabs | Request tabs | Top 50 tabs