>
 >
Siete Piezas - 5 Ay Malaguena

Siete Piezas - 5 Ay Malaguena Guitar Tabs

Federico Moreno Torroba - Siete Piezas - 5 Ay Malaguena chords, tabs, tablatures, lyrics

Guitar lessons | Add/correct | Request | Top 50 tabs Artists:  A B C D E F G H I J K L M N O P Q R S T U V W X Y Z 0-9

Siete Piezas - 5 Ay Malaguena Guitar Tabs – Federico Moreno Torroba

CD, Sheet music, Poster

Do you like Siete Piezas - 5 Ay Malaguena? Share with your friends now
Tabs
As recorded by Federico Moreno Torroba

Music by Federico Moreno Torroba

|-------0-------0-------0-|-------0-------0-------0-|-------1-------1-------1-|
|-----0-------0-------0---|-----0-------0-------0---|-----0-------0-------0---|
|---1-------1-------1-----|---1-------1-------1-----|---2-------2-------2-----|
|-----------------2-------|-----------------2-------|-----------------3-------|
|---------0---------------|---------0---------------|---------3---------------|
|-0-----------------------|-0-----------------------|-0-----------------------|

|-------1-------1-------1-|-------0-------0-------0-|-------0-------0-------0--|
|-----0-------0-------0---|-----0-------0-------0---|-----0-------0-------0----|
|---2-------2-------2-----|---1-------1-------1-----|---1-------1-------1------|
|-----------------3-------|-----------------2-------|-----------------2--------|
|---------3---------------|---------0---------------|---------0----------------|
|-0-----------------------|-0-----------------------|-0------------------------|

|-------0-------0-------0-|-------1-----------------|-------0-------0-------1--|
|-----1-------1-------1---|-----1---------0-------0-|-----0-------0-------0----|
|---2-------2-------2-----|---2---------0-------2---|---1-------0-------2------|
|-------------------------|-----------0-------1-----|-----------------3--------|
|-0-------3-------2-------|-0-----------------------|---------2----------------|
|-------------------------|---------3-------1-------|-0------------------------|

|-------0-------0-------1-|-------------------|---5---5---5-|
|-----0-------0-------0---|-------------------|---6---6---6-|
|---1-------1-------2-----|-----------------0-|---4---4---4-|
|-----------------3-------|-----------0-2-3---|-7---5---7---|
|---------2---------------|-----0-2-3---------|-------------|
|-0-----------------------|-1-3---------------|-------------|

|-------0-------0-------0-|---5---5---5-|-------0-------0-------0-|
|-----0-------0-------0---|---6---6---6-|-----0-------0-------0---|
|---1-------1-------1-----|---4---4---4-|---1-------1-------1-----|
|-----------------2-------|-7---5---7---|-----------------2-------|
|---------0---------------|-------------|---------0---------------|
|-0-----------------------|-------------|-0-----------------------|

|-----1-0-1-0-----|-------0-------0-------0-|-----0---5-------------|
|---3---------3-1-|-----0-------0-------0---|---0-6-6---8-6-8-6-5---|
|-----2-----------|---1-------1-------1-----|---7-----------------7-|
|-----------------|-----------------2-------|-7-----7---------------|
|-----3-----------|---------0---------------|-----------------------|
|-0---------------|-0-----------------------|-----------------------|

|-------0-------0-------0-|----5--5--|-0-------||--------||------------------|
|-----0-------0-------0---|----6--6--|------3--||-1--0---||------------------|
|---1-------1-------1-----|----5--5--|-2-------||------2-||-2-4p2p0h2h4--2-0-|
|-----------------2-------|----------|-3-------||--------||--------------2---|
|---------0---------------|----3--3--|---------||--------||--------------2---|
|-0-----------------------|-0--------|-0-------||--------||--------------0---|

|---------|------------------------||
|---------|------------------------||
|-2----0--|------------------------||
|-3-------|-3------5p3p2h3h5p3-2-0-||
|-3-------|------------------------||
|-0-------|------------------------||

|-------0-------0-------0-|-------0-------0-------0-|
|-----0-------0-------0---|-----0-------0-------0---|
|---1-------1-------1-----|---1-------1-------1-----|
|-----------------3-------|-----------------3-------|
|---------0---------------|---------0---------------|
|-0-----------------------|-0-----------------------|

|-------0-------0-------0-|-------1-----------------|-------0-------0-------1--|
|-----1-------1-------1---|-----1---------0-------0-|-----0-------0-------0----|
|---2-------2-------2-----|---2---------0-------2---|---1-------0-------2------|
|-------------------------|-----------0-------1-----|-----------------3--------|
|-0-------3-------2-------|-0-----------------------|---------2----------------|
|-------------------------|---------3-------1-------|-0------------------------|

|---0---0---0-||----------|----------|------------|---------------------|
|---0---0---0-||----------|-3--5--3--|-3--3---5p3-|---5-------5-------3-|
|---1---1---1-||-2--4--5--|----------|------------|-----5-------5-----4-|
|---------2---||----------|----------|------------|-------5-5-----5---5-|
|-----2-------||----------|----------|------------|-3-------------------|
|-0-----------||----------|----------|------------|-----------------3---|

|---------|----------|----------|-------------------|---1-1-1-1-0-------|
|----5----|----6--5--|-3--------|-----------5-------|-------------3-1-0-|
|----5----|-5--------|----5--4--|-5---4-5-7---7-5-4-|-2-----------------|
|----5----|----------|----------|-------------------|-------------------|
|-3-------|----------|----------|-------------------|-------3-----0-----|
|---------|----------|----------|-------------------|-1-----------------|

|----------|-------0---|------------|---------------|-0--3--1--|-0---------|
|----0--1--|-3-------3-|-1------0---|---------------|-1--0-----|----3--1---|
|-2--------|-------0---|----2---0-2-|-0-------------|-0-----2--|-0---------|
|----0--2--|-3-------3-|-2--3-----3-|-2-------------|----------|----3--2---|
|-3--------|-----------|------------|-----------0---|----------|-----------|
|----------|----3------|------------|---3-3-2-3---3-|-3--------|-----------|

|---------------|---------------|----0--1--|-0--3--1--|-0--0----0-------|
|-3-------1-3-1-|-0-----------0-|-3--0--1--|-0--3--1--|-0--0--3---3-1-3-|
|---3---3-------|---0-------0---|-2--0--2--|-0--4--2--|-0--0--2---------|
|-----3---1-----|-----3-0-3-----|-3--------|----------|-------3---------|
|---------------|---------------|----------|----------|-----------------|
|-3-------------|-3-------------|----------|----------|-----------------|

|-0-------------|----------|----------|-------------------|----5--------|
|-1-------------|----0--3--|-1--0-----|-------------------|----6--------|
|-0-------------|-2--------|-------2--|-0---------2p0---0-|-2--5-7-7-7--|
|---------------|-3--0--3--|-2--0-----|---------------3---|-------------|
|-----------0---|-3--------|-------3--|-2-----------------|----8--------|
|---3-3-2-3---3-|-1--------|----------|----0--------------|-------------|

|------------------|---1-1-1-1-0-1-3-1-0-|
|------------------|-0-------------------|
|-7------5p4-5p4---|---------------------|
|----------------7-|---------------------|
|------------------|---------------------|
|------------------|---------------------|

|-1h3-1-0-----------|----1--------------||
|---------3-1-0-----|----3--------------||
|---------------2-0-|----4--------------||
|-------------------|-3---------2h3h5p3-||
|-------------------|-------------------||
|-------------------|-------------------||

|-------0-------0-------0-|-------0-------0-------0-|-------1-------1-------1--|
|-----0-------0-------0---|-----0-------0-------0---|-----0-------0-------0----|
|---1-------1-------1-----|---1-------1-------1-----|---2-------2-------2------|
|-----------------2-------|-----------------2-------|-----------------3--------|
|---------2---------------|---------2---------------|---------3----------------|
|-0-----------------------|-0-----------------------|-0------------------------|

|-------1-------1-------1-|-------0-------0-------0-|-------0-------0-------0--|
|-----0-------0-------0---|-----0-------0-------0---|-----0-------0-------0----|
|---2-------2-------2-----|---1-------1-------1-----|---1-------1-------1------|
|-----------------3-------|-----------------2-------|-----------------2--------|
|---------3---------------|---------2---------------|---------2----------------|
|-0-----------------------|-0-----------------------|-0------------------------|

|-------------------|-1-------------|-------0-------0-------0-|
|-------------------|-0-------------|-----0-------0-------0---|
|-----------------0-|-2-1-2-0-------|---1-------1-------1-----|
|-----------0-2-3---|---------3-2-0-|-----------------2-------|
|-----0-2-3---------|---------------|---------2---------------|
|-1-3---------------|---------------|-0-----------------------|

|-1-------------|---0-----0-------|---0-----0-------|-----------------------|
|-0-------------|-----0-----------|-----0-----------|-----------------------|
|-2-1-2-0-------|-------2---------|-------2---------|-----------------------|
|---------3-2-0-|-----------3-2-0-|-----------3-2-0-|-3-2-0-----------------|
|---------------|-----------------|-----------------|-------3-2-0-0h2p0-----|
|---------------|-0---------------|-0---------------|-------------------3-1-|

|-----------------|-----------------|-----------------|----0-----||
|---------0-------|---------0-------|---------0-------|----0-----||
|---1-------------|---1-------------|---1-------------|----1-----||
|-----2-----------|-----2-----------|-----2-----------|----------||
|-------2---0-----|-------2---0-----|-------2---0-----|----------||
|-0-----------3-1-|-0-----------3-1-|-0-----------3-1-|-0--------||





Comments


Popular Federico Moreno Torroba tabs & chords
Castles Of Spain Vol 1 - 5 Alcaniz Tabs
Castles Of Spain Vol 1 - 6 Siguenza Tabs
Castles Of Spain Vol 1 - 7 Alba De Tormes Tabs
Castles Of Spain Vol 1 - 8 Alcazar De Segovia Tabs
Madroños Tabs
Siete Piezas - 1 Segoviana Tabs
Siete Piezas - 7 Bolero Menorquin Tabs
Sonatina In A - 1 Allegretto Tabs
Suite Castellana - Arada Tabs
Suite Castellana - Fandanguillo Tabs


Song lyrics



↑ Back to top | Tablatures and chords are parodies/interpretations of the original songs. You may use it for private study, scholarship, research or language learning purposes only
© 2014 AZChords.com Contact us | Privacy policy | DMCA | Add/correct tabs | Request tabs | Top 50 tabs