>
 >
Siete Piezas - 2 Minueto Del Majo

Siete Piezas - 2 Minueto Del Majo Guitar Tabs

Federico Moreno Torroba - Siete Piezas - 2 Minueto Del Majo chords, tabs, tablatures, lyrics

Guitar lessons | Add/correct | Request | Top 50 tabs Artists:  A B C D E F G H I J K L M N O P Q R S T U V W X Y Z 0-9

Siete Piezas - 2 Minueto Del Majo Guitar Tabs – Federico Moreno Torroba

CD, Sheet music, Poster

Do you like Siete Piezas - 2 Minueto Del Majo? Share with your friends now
Tabs
As recorded by Federico Moreno Torroba

Music by Federico Moreno Torroba
Arranged by Paulino Blanco

|-----0-0-0-0-|-1-0---------|-------------------|----------|-0-1-3-3-3-3-|
|-1-3-----1---|-1---3-1-0---|-0-------0h1p0---0-|-1--------|-1-------5---|
|-0-------2---|-2---------2-|-------0-------2---|-0--------|-0-------5---|
|-2-----------|-0-----------|-----0-------3-----|-2--------|-------------|
|-3-----------|-------------|-------------------|-------3--|-------------|
|-------------|-------------|---3---------------|----3-----|-------------|

|-5-3-1-0-----|---------------|-------------|---0-1-3-1-0-|----------|
|---5-3-1-3-1-|-3-------0---0-|-1-----------|-3-----------|-3--------|
|-5-------4-2-|---2-2-2-1-2---|-2-----------|-2-0-2-4-2-0-|-2--------|
|-3-----------|---3-3-3-2-----|---2-3-2-1-2-|-3-----------|-3--------|
|-------------|-2-------------|-0-----------|-------------|----------|
|-------------|---------------|-------------|-------------|----3--3--|

|-----0-1-0----|----------|---0-1-3-3-1-|-0-------0---|-----------|
|-1-3-------3--|-1--------|-3-----------|-1-3-1-3-1-1-|-3--3--0---|
|-0---0-2-0----|-0--------|-1-----------|---4-2-4---2-|-2--2--0---|
|-2-3-------3--|-2--------|-3-----------|-------------|-3--3--3---|
|--------------|----------|-------------|-------------|-----------|
|--------------|----3--3--|-------------|-3-----------|-1--1--3---|

    To Coda
|----------||-0---------0---|-0----3-1---|-0-----0-------|----------|
|-1--------||---1-1-1-----0-|----1-1---3-|---1h3---3-1-0-|----------|
|-0--------||---2-2-2-----1-|----2-2---2-|-2---------1---|-2--------|
|-2--------||---------------|--------0---|-2---------2---|-2--------|
|-3-----3--||-0-------2-----|-3----------|---------------|-3-----0--|
|----3-----||---------------|------------|---------------|----0-----|

                                           D.C. al Coda
|-0---------0---|-0----5-3-0-|-1-3p1-0-------|----------||
|---1-1-1-----0-|------------|---------3-1-0-|----------||
|---2-2-2-----1-|----2-2-----|-2---------1---|-2--------||
|---------------|----5-5-----|-0---------2---|-2--------||
|-0-------2-----|-4----------|---------------|-3-----0--||
|---------------|------------|---------------|----0-----||

  &
|-------------|-------------|----------|-------------|-------------|
|-------------|-------------|----------|-------------|-------------|
|-------------|-------------|----------|-0-0-0-2-0---|-----------0-|
|-------0-----|-----------0-|-2--3--0--|-2---------3-|-2-0-2-2-3---|
|-3-3-3---3-2-|-0---0-2-3---|----------|---------2---|-3---1---0-1-|
|-------------|---3---------|----------|-------------|-------------|

|----------|-------------|-------------|-0--1-----|-3-3-3-5-3-1-|-0---0-0-1-3-|
|----------|---1-1-3-1---|---------1-3-|-1--1--3--|-----1-6-5-3-|-1-3-1---1---|
|-2--3--0--|-2---2---0-3-|-2-0-2-3-0-2-|-0--2--4--|-5-----------|-------------|
|----0--2--|-3---0---2---|-3-2-3-3-2-3-|-------3--|-2-----------|-------------|
|-3--------|-------------|-3-----5-----|----------|-3---0---2---|-3---1---0---|
|----------|-------------|-------------|-3-----3--|-------------|-------------|

|-5--7--3--|-1--------|-4-4-4-3-----|------------|-3-3-3-------|------------|
|-6--6--5--|-1--------|---------6-4-|-3-------1--|-3-----6-4-3-|------------|
|-7--7--5--|-2--------|-------------|-------1----|-4-----------|-2-------0--|
|----5-----|-3--------|-------------|-----0------|-3-----------|-------1----|
|-5-----3--|----3-----|-------------|---3--------|-------------|-----3------|
|----------|-------1--|-------------|------------|-------------|---3--------|

                                                        D.C. al Fine
|-------------|-------------|-------------|---3-3-3-3-3-|-3-3-3-3-3-3--||
|-3-3-3-4-3-1-|-0-----------|-3-3-3-4-3-1-|-0-----------|---------0-0--||
|-2-----------|-------0-----|-1-----------|---0-0-0-1-1-|-2-2-3-3------||
|-4-----------|-----0-----0-|-3-----------|-0-----------|--------------||
|-------------|---------2---|-------------|-1-----------|--------------||
|-------------|---3---------|-------------|-------------|--------------||





Comments


Popular Federico Moreno Torroba tabs & chords
Castles Of Spain Vol 1 - 3 Manzanares El Real Tabs
Castles Of Spain Vol 1 - 4 Montemayor Tabs
Castles Of Spain Vol 1 - 5 Alcaniz Tabs
Castles Of Spain Vol 1 - 7 Alba De Tormes Tabs
Castles Of Spain Vol 1 - 8 Alcazar De Segovia Tabs
Nocturno Tabs
Siete Piezas - 1 Segoviana Tabs
Siete Piezas - 3 Rumor De Copla Tabs
Sonatina In A - 1 Allegretto Tabs
Sonatina In A - 3 Allegro Tabs


Song lyrics



↑ Back to top | Tablatures and chords are parodies/interpretations of the original songs. You may use it for private study, scholarship, research or language learning purposes only
© 2014 AZChords.com Contact us | Privacy policy | DMCA | Add/correct tabs | Request tabs | Top 50 tabs