>
 >
Siete Piezas - 1 Segoviana

Siete Piezas - 1 Segoviana Guitar Tabs

Federico Moreno Torroba - Siete Piezas - 1 Segoviana chords, tabs, tablatures, lyrics

Guitar lessons | Add/correct | Request | Top 50 tabs Artists:  A B C D E F G H I J K L M N O P Q R S T U V W X Y Z 0-9

Siete Piezas - 1 Segoviana Guitar Tabs – Federico Moreno Torroba

CD, Sheet music, Poster

Do you like Siete Piezas - 1 Segoviana? Share with your friends now
Tabs
SIETE PIEZAS DE ALBUM - I. SEGOVIANA
As recorded by Federico Moreno Torroba

Music by F Moreno Torroba
Arranged by Paulino Blanco


|-7-4-5-7-|-9-9-7-5-|-------|----7--|-7-4-5-7-|--9-9-------|-------|
|-5-------|---------|-9--7--|-9-----|-5-------|-10---12-10-|-9--7--|
|---------|-9-------|-9--8--|-9-----|---------|--9---------|-9--8--|
|---------|---------|-------|-------|-0-------|------------|-9--9--|
|---------|-0-------|-------|-7-----|---------|------------|-------|
|-0-------|---------|-7--7--|-------|---------|--9---------|-7--7--|

|-0-----|-0-0-----|---------|-0-----|-------|-0-0-----|---------|
|-0-----|-----3-1-|-0-0---0-|----3--|-0-----|-----3-1-|-0-0---0-|
|-1-----|-2-------|-----2---|-2--2--|----2--|-2-------|-----2---|
|-------|-3-------|-2-------|-3--3--|-2-----|-3-------|-2-------|
|-------|---------|-3-------|-------|-3-----|---------|-3-------|
|----0--|-0-------|---------|-3--3--|-------|-3-------|---------|

|-------|-0----|-5-5-5-3-|-2-------|-0-------|---------|-5-5-5---|
|-1--3--|-1----|-5-------|---------|---3-1-3-|-0-------|-5-----8-|
|-2--2--|-0----|-5-------|---------|-0-------|---------|-5-------|
|-3--3--|------|---------|-----1-4-|---4-2-4-|-----1-4-|---------|
|-------|-3----|-8-------|---2-----|---------|---2-----|-8-------|
|-3--3--|------|---------|---------|---------|---------|---------|

|-2-3-0-2-|---0-----|----7--|-7-4-5-7-|-9-9-7-5-|-------|
|---------|-3---2-3-|-0--7--|-5-------|---------|-9--7--|
|-2---0---|---------|----8--|---------|-9-------|-9--8--|
|-0-------|-4---2---|-1--9--|---------|---------|-------|
|---------|---------|-------|---------|-0-------|-------|
|---------|---------|-------|-0-------|---------|-7--7--|

|-4--7--|-7-4-5-7-|--9-9-7-5-|-4--2--|-0----||---------|-------0--|
|-5-----|-5-------|-10-------|-4--4--|-0----||---------|---0-1----|
|-------|---------|--9-------|-4--2--|-1----||-0-----0-|-2--------|
|-------|---------|----------|-------|------||---2-4---|----------|
|-7-----|-5-------|----------|-2--2--|------||-2-------|-3--------|
|-------|---------|--9-------|-------|-0----||-0-------|-0--------|


|---0-2---|-0--7--||----10-10-8-|-7-7-7-3-|-7--5--|-2--2--|-0-12-10-8-7-|
|-4-----4-|-0-----||--3---------|-3-------|-5--4--|-3--2--|-1-----------|
|-2-------|-0-----||*-5---------|-4-------|-5--4--|-3--2--|-1-----------|
|---------|-------||*-4---------|-5-------|-5--4--|-2--1--|-0-----9-7-6-|
|---------|-------||------------|---------|-------|-------|-------------|
|-0-------|-0-----||------------|---------|-------|-------|-------------|


|-8-5-7-8-|-10-10-8h10-8-7-|-8-------|---8-8-7-5-|-7-------|-3-3-2h3p2-----|
|-------5-|----------------|---------|-5---------|---8-5-7-|-0-0-------5-4-|
|---5-7---|-10-10------9-7-|-9-------|-5---7-----|-4---5---|---------2-----|
|-7-------|----------------|-------7-|-5---------|-5---7---|-----------5-4-|
|---------|----------------|-----7---|-5---8-----|---------|---------------|
|---------|----------------|---5-----|-----------|---------|---------------|

  1._________ 2.________         
|-0----------||-0--<12>--||-7-4-5-7-----|---9-7-5-----|-------------|
|------------||-0--------||-5-----------|---------5-7-|-9-----7-----|
|-0---------*||-0--------||---------9-8-|-6-------6-8-|---9-----8---|
|-----------*||-2--------||-------------|-------------|-----9-----7-|
|---2-5p3-2--||-2--------||-------------|-0-----------|-------------|
|------------||-0--------||-0-----------|-------------|-7-----7-----|

|-0-----------|-------------|-0-0---------|---0-4-----4-2-0-|----<7>--|
|---0---0-----|-0-----0-----|-----4-2-----|-0-----1-2-------|-4-------|
|-----1-------|---1-2-------|-------------|-----------------|-2-------|
|---------2---|-2-------2-1-|-------------|---------2-------|---------|
|-------------|-------------|-4-----------|---------0-------|-2-------|
|-0-----------|-0-----------|---------0-2-|-4---------------|---------|

|-7-4-5-7-----|----9-7----------|-4-----2-----|-0---------------|---0-2s4--|
|-5-------5-4-|--------10----7--|---5-----4-2-|---4---4---------|----------|
|-------------|------------9-8--|-----4-------|-----4-----------|---1-2s4--|
|-------------|-11--------11----|-------------|----------2------|----------|
|-------------|--0--------------|-2-----2-----|-------------7-6-|-4--------|
|-0-----------|-----------------|-------------|-0--------0------|-------7--|

|-4-----4-2-----2-|-0-----|---------||
|-----5-------4---|-0-----|---------||
|---4-------2-----|-1-----|---------||
|-----------------|-------|---------||
|-2-------2-------|-------|---------||
|-----------------|----0--|---------||


|-7-4-5-7-|-9-9-7----|-4--2--|-4--7--|-7-4-5-7-|-9-9-------|-4--2--|
|-5-------|-------10-|-5--4--|-5-----|-5-------|-9---12-10-|-5--4--|
|---------|-9--------|-------|-------|---------|-9---------|-4--2--|
|---------|----------|-------|-2-----|-0-------|-----------|-------|
|---------|-0--------|-2--2--|-------|---------|-----------|-2--2--|
|-0-------|----------|-------|-------|---------|-9---------|-------|

|-0-----|-0-0-----|---------|-0-----|-------|-0-0-----|---------|
|-0-----|-----3-1-|-0-0---0-|----3--|-0-----|-----3---|-0-0---0-|
|-1-----|-2-------|-----2---|-2--2--|----2--|-2-----1-|-----2---|
|-------|-3-------|-2-------|-3--3--|-2-----|-3-------|-2-------|
|-------|---------|-3-------|-------|-3-----|---------|-3-------|
|----0--|-3-------|---------|-3--3--|-------|-3-------|---------|

|-------|-0----|-5-5-5---|-4-4-0-2-|-4--2--|-0----|-0--0--|-0------||
|-1--3--|-1----|---------|-5-------|-5--4--|-0----|-0--0--|-0------||
|-2--2--|-0----|-5-----4-|-4---1-2-|-4--4--|-1----|-1--1--|-1------||
|-3--3--|------|-4-------|---------|-------|------|-------|--------||
|-------|-3----|---------|-2-------|-2--2--|------|-------|--------||
|-3--3--|------|---------|---------|-------|-0----|-0--0--|-0------||





Comments


Popular Federico Moreno Torroba tabs & chords
Castles Of Spain Vol 1 - 1 Turegano Serranilla Tabs
Castles Of Spain Vol 1 - 3 Manzanares El Real Tabs
Castles Of Spain Vol 1 - 5 Alcaniz Tabs
Castles Of Spain Vol 1 - 6 Siguenza Tabs
Siete Piezas - 2 Minueto Del Majo Tabs
Siete Piezas - 7 Bolero Menorquin Tabs
Sonatina In A - 1 Allegretto Tabs
Sonatina In A - 3 Allegro Tabs
Suite Castellana - Danza Preambulo Tabs
Suite Castellana - Fandanguillo Tabs


Song lyrics



↑ Back to top | Tablatures and chords are parodies/interpretations of the original songs. You may use it for private study, scholarship, research or language learning purposes only
© 2014 AZChords.com Contact us | Privacy policy | DMCA | Add/correct tabs | Request tabs | Top 50 tabs