>
 >
Castles Of Spain Vol 1 - 5 Alcaniz

Castles Of Spain Vol 1 - 5 Alcaniz Guitar Tabs

Federico Moreno Torroba - Castles Of Spain Vol 1 - 5 Alcaniz chords, tabs, tablatures, lyrics

Guitar lessons | Add/correct | Request | Top 50 tabs Artists:  A B C D E F G H I J K L M N O P Q R S T U V W X Y Z 0-9

Castles Of Spain Vol 1 - 5 Alcaniz Guitar Tabs – Federico Moreno Torroba

CD, Sheet music, Poster

Do you like Castles Of Spain Vol 1 - 5 Alcaniz? Share with your friends now
Tabs
ALCANIZ (FESTIVA)
Arranged by Andres Segovia

    tuning - E A D G B E

    Allegro E=168
    3/8

                                 |-3-|
    E S S S S   E  E E   E E E   T T E Q
||------------|-4----7-|-9-7-5-|-4h5-4-2---|
||o-0-5p4-5-7-|----5-9-|-------|-4-----2---|
||--1---------|------8-|-------|-4-----2---|
||--2---------|--------|-7-6-4-|-----------|
||o-----------|--------|-------|---------2-|
||--0---------|--------|-------|-----------|
    E E   E     Q.       E E E   E     E E

                       1.
                                         |-3-|
  E a S S S S   E E E   E  S S S S   S S S S S S S
|-5-5p4---4-5-|-7-4---|-3------3---|---0-2p0--------||
|-5-----7-----|-5---5-|-5----5---7-|---------4-2h4-o||
|-6-----------|-------|-3--3-------|-----------2----||
|-4-----------|-6-2---|------------|-7--------------||
|-------------|-----4-|-3----------|-----------2---o||
|-------------|-------|------------|----------------||
  E   E   E     E E E   Q.           Q         E

  2.
 To Coda
           |-3-|
  E E E    S S S Q     S S E E   S E   E   S   S S E E
|-3-3-2-||-2h4p2-0---|---------|---0---0---0-|---------|
|-5-5-4-||-----------|-------0-|-------------|-------0-|
|-3-3-2-||-------1---|-4p2-1---|-2---1---2---|-4p2-1---|
|-------||---------2-|-0-----0-|-------------|-0-----0-|
|-3-3-2-||-------2---|---------|-4---2---4---|---------|
|-------||-0---------|---------|-------------|---------|
  E E E    E     E E   Q     E   E   E   E     Q     E

  S E   E   S   S  S S S S S   S  S S S S S   S S S S S S
|---0---0---0-|--------------|--------------|-------------|
|-------------|------3p1-0---|------1p0-----|-------------|
|-2---1---2---|----2-------2-|----------2---|-------------|
|-------------|--------------|----2-------0-|-4-------0h2-|
|-3---2---3---|--------------|--------------|---0h2-3-----|
|-------------|-1------------|-3------------|-------------|
  E   E   E     Q.             Q.             W

                                    |-3-|   |-3-|
  S S S S S S   Q.           E. T T S S S   T T T T T +Q
|-----------0-|-2----------|--------------|----------------|
|-------------|--------0---|--------------|----------------|
|-----2-4-5---|------1---2-|--------------|----------------|
|-4h5---------|------0---1-|-4--2p0-2p0---|-0h2p0----------|
|-------------|----2-----2-|------------3-|-------3-2-(2)--|
|-------------|------------|--------------|----------------|
  W             S  S S S E

                    |-3-|
  S S S S S S   S S T T T S S S   S S S S S S   S S S S S S
|-------------|-----------------|---------7p5-|-3p2-0---0---|
|---------0---|-------------8---|---5-7p5-----|-------4---1-|
|-------0-----|---5-4h5p4-2---8-|-------------|-------------|
|---2-4-----2-|-----------------|-------------|-------------|
|-0-----------|-0---------------|-3-----------|-------------|
|---------3---|-------------7---|-------------|-------------|
  Q       E     Q           E     E   E   E

                                              D.C. al Coda
  S E   E   S   +S  E   E   S   +S  E   E   S   +S  E   E   S
|-------------|---------------|---------------|---------------||
|---0---0---0-|-(0)-0---0---0-|-(0)-0---0---0-|-(0)-0---0---0-||
|-------------|---------------|---------------|---------------||
|---------0---|--1----5---4---|-------5---4---|-------5---4---||
|-2---4-------|---------------|--2------------|--2------------||
|-------------|---------------|---------------|---------------||
  E   E   E      E    E   E      E    E   E      E    E   E

  &
  Q.       E Q     E Q     E Q     E Q
|-0------|---0---|---0---|---0---|---0---|
|-1------|---1---|---1---|---8---|---8---|
|-0------|---0---|---0---|-------|-------|
|----0---|-4---2-|-4---2-|-9---7-|-9---7-|
|-0----3-|-------|-------|-------|-------|
|--------|-------|-------|-------|-------|
  E  E E   Q   E   Q   E   Q   E   Q   E

  E  S S S S   E E E   E  E E   E E E   E  E   E
|------------|-------|-5--3---|-8-7-3-|-2-(2)-(2)-|
|-0--------0-|-5p3---|------3-|-----0-|--------0--|
|-0--4p2-0---|-----4-|--------|-9-7---|----1------|
|-0----------|-------|--------|-0-----|----2------|
|------------|-------|-2------|-------|-----------|
|------------|-3-----|--------|-------|----2------|
  Q.           Q.      Q.       E E E   E  Q

  E  E   E    E  E  E   E E E   E E E   E E E
|-2-(2)-(2)-|-2-(2)---|-------|-----6-|-4-----|
|--------0--|---------|-0-4-2-|-7-5---|---7-2-|
|----1------|----1--3-|-------|-------|-------|
|----2------|----2----|-------|-------|-------|
|-----------|---------|-------|-------|-------|
|----2------|----2----|-------|-------|-------|
  E  Q        E  Q

  E E E   E E E   E E E   E E E   E E E
|-2-----|-2-----|-2-----|-4-2-0-|---1-2-|
|---0-2-|---0-2-|---0-2-|-5-4-2-|---3-4-|
|---3-3-|---3-3-|---3-3-|-------|---1-2-|
|-------|-------|-------|-------|-------|
|-------|-------|-------|-------|-2-----|
|---2---|---2---|---2---|-------|-------|
  E E E   E E E   E E E           Q   E

  E E E   E E E   E E E   E  S S S S   E  E E
|---1-2-|---1-2-|-5-----|------------|-4----7-|
|---3-4-|---3-4-|-5-2-4-|----5p4-5-7-|----5-9-|
|---1-2-|---1-2-|-3-2-4-|------------|------8-|
|-------|-------|---2-4-|------------|--------|
|-2-----|-2-----|-3-----|------------|--------|
|-------|-------|-------|-0----------|--------|
  Q   E   Q   E   E E E   Q.           Q.

          |-3-|
  E E E   T T E Q     E a S S S S   E E E   E  S S S S
|-9-7-5-|-4h5-4-2---|-5-5p4---4-5-|-7-4---|-3------3-2-|
|-------|-4-----2---|-5-----7-----|-5---5-|-5----5-----|
|-------|-4-----2---|-6-----------|-------|-3--3-------|
|-7-6-4-|-----------|-4-----------|-6-2---|------------|
|-------|---------2-|-------------|-----4-|-3----------|
|-------|-----------|-------------|-------|------------|
  E E E   E     E E   E   E   E     E E E   Q.

      |-3-|                                    |-3-|
  S S S S S S S   E S S S S   E  E E   E E E   T T E Q
|---0-2p0-------|-----------|-4----7-|-9-7-5-|-4h5-4-2---|
|---------4-2h4-|-0-5p4-5-7-|----5-9-|-------|-4-----2---|
|-2---------2---|-1---------|------8-|-------|-4-----2---|
|---------------|-2---------|--------|-7-6-4-|-----------|
|-----------2---|-----------|--------|-------|---------2-|
|---------------|-0---------|--------|-------|-----------|
  Q         E     E E   E     Q.       E E E   E     E E

  E a S S S S   E E E   E E E   E  S S S S   E E E
|-5-5p4---4-5-|-7-4---|-3-3-2-|----------0-|-5-4-2-|
|-5-----7-----|-5---5-|-5-5-4-|--------0---|-5-4-2-|
|-6-----------|-------|-3-3-2-|----0h1-----|-6-4-2-|
|-4-----------|-6-2---|-------|------------|-------|
|-------------|-----4-|-3-3-2-|------------|-------|
|-------------|-------|-------|-0----------|-7-----|
  E   E   E     E E E   E E E   Q.           E E E

  E  S S S S   E E E   E  S S S S   E E E   S S S S S S
|----------0-|-5-4-2-|----------0-|-5-4-2-|-------------|
|--------0---|-5-4-2-|--------0---|-5-4-2-|---------0h1-|
|----0h1-----|-6-4-2-|----0h1-----|-6-4-2-|-----0h1-----|
|------------|-------|------------|-------|---2---------|
|------------|-------|------------|-------|-------------|
|-0----------|-7-----|-0----------|-7-----|-0-----------|
  Q.           E E E   Q.           E E E   Q       E

      H.=H
  S S S S S S     Q.      Q.      Q.     +E  E E
|-----3h4-7h8-|-<12>---|-------|-^0----|-(0)-----*|
|-4h5---------|--------|-^1----|-^0----|-(0)-----*|
|-------------|--------|-^0----|-^1----|-(1)-----*|
|-------------|--------|-^1----|-^2----|-(2)-----*|
|-------------|--------|-^0----|-^2----|-(2)-----*|
|-------------|--------|-------|-^0----|-(0)-----*|
                          Q.      Q.     +E  E E

Duration Legend
---------------
W - whole;  H - half;  Q - quarter;  E - 8th;  S - 16th;  T - 32nd;  X - 64th
a - acciaccatura;  + - note tied to previous;  . - note dotted
Uncapitalized letters represent notes that are staccato (1/2 duration)
Irregular groupings are notated above the duration line
Duration letters will always appear directly above the note/fret number they
represents the duration for. Duration letters with no fret number below them
represent rests. Low melody durations appear below the staff.

Tablature Legend
----------------
 h   - hammer-on
 p   - pull-off
  - natural harmonic

Misc Legend
-----------
 |  - bar
||  - double bar
||o - repeat start
o|| - repeat end
*|  - double bar (ending)
 :  - bar (freetime)
 $  - Segno
 &  - Coda





Comments


Popular Federico Moreno Torroba tabs & chords
Castles Of Spain Vol 1 - 1 Turegano Serranilla Tabs
Castles Of Spain Vol 1 - 2 Torija Elegia Tabs
Siete Piezas - 1 Segoviana Tabs
Siete Piezas - 2 Minueto Del Majo Tabs
Siete Piezas - 3 Rumor De Copla Tabs
Siete Piezas - 5 Ay Malaguena Tabs
Siete Piezas - 6 Chisperada Tabs
Siete Piezas - 7 Bolero Menorquin Tabs
Suite Castellana - Fandanguillo Tabs
Torjia Tabs


Song lyrics



↑ Back to top | Tablatures and chords are parodies/interpretations of the original songs. You may use it for private study, scholarship, research or language learning purposes only
© 2014 AZChords.com Contact us | Privacy policy | DMCA | Add/correct tabs | Request tabs | Top 50 tabs