>
 >
Castles Of Spain Vol 1 - 4 Montemayor

Castles Of Spain Vol 1 - 4 Montemayor Guitar Tabs

Federico Moreno Torroba - Castles Of Spain Vol 1 - 4 Montemayor chords, tabs, tablatures, lyrics

Guitar lessons | Add/correct | Request | Top 50 tabs Artists:  A B C D E F G H I J K L M N O P Q R S T U V W X Y Z 0-9

Castles Of Spain Vol 1 - 4 Montemayor Guitar Tabs – Federico Moreno Torroba

CD, Sheet music, Poster

Do you like Castles Of Spain Vol 1 - 4 Montemayor? Share with your friends now
Tabs
Romance de los Pinos (from Castles of Spain Vol 1) - Federico Moreno Torroba 
1st version - by Petteri Keinдnen, barres shown
2nd version - by ohdan, individual note lengths shown
******************************************************************************

Romance de los Pinos by F. Moreno Torroba (from Castles of Spain Vol 1)

Tabulature by Petteri Keinдnen 

Time signature: 3/4
Tempo: Largo (52 bpm)


II___________________IV____________________________   II_______
|--------------------|--------------------|--------------------|
|--2--3--2h3p2---2-3-|--5-----------------|--------------------|
|--2-----------2-2---|-------7--6--4------|--4--6p4----2-------|
|--2-----------------|--6-------------7---|--4---------2-------|
|--0-----------------|--4-----------------|--5---------0-------|
|----------------2---|--------------------|--------------------|

                             V____    
|--------------------|--5-----7p5---------|--------------------|
|--5--7--5--0--2--5--|--------6----9--10--|---------------0----|
|--4-----------2--4--|--5-----5-----------|--6--9p7--6----1----|
|-----------------5--|--3-----------------|--7-------7----0----|
|--------------0-----|-----7--6-----------|--7--8----7---------|
|--4-----------------|--------------------|-------------0----0-|

                              V_______________ III_____________
|--------------------|--------------------|------5p3-----5-----|
|--------------------|--5--6--5-----5--6--|--8--------6--------|
|--------2-----------|-----------5--------|--5---5-------------|
|--------2-----------|--5-----------6-----|------3-------------|
|--------0-----------|--3-----------------|--7-----------------|
|--------------------|--------------------|--------------------|

III__________________
|--------3-----------|--------------------|--------------------|
|--------3-----------|--5--6--5-----5--6s-|-s8----6p5-----6----|
|--------4-----------|-----------5--5-----|------------7-------|
|--------5-----------|--5-----------------|--9----0------------|
|--------------------|--3-----------0-----|--------------------|
|--------------------|--------------------|--0-----------------|

                                                 III___________
|--------0-----------|--0--1--0-----0--1--|--3----5--3-----5---|
|--------0-----------|-----------1--------|--1----------6------|
|--------------------|--2-----------1-----|-------5------------|
|--------6-----------|--------------------|--2----3------------|
|--------7-----------|--3-----------------|--------------------|
|--------------------|--------------------|--------------------|

III__________________
|--------3-----------|--5--8--7--5--3--5--|--0-----------------|
|--------3-----------|-----------------6--|--9----------0---0--|
|--------4-----------|--5--------------5--|----------2----2----|
|--------5-----------|--3--7--5--3--2--0--|--9-------1---------|
|--------------------|--------------------|--7-------2---------|
|--------------------|--------------------|------0---1---------|


|--------------------|--------------------|--------------------|
|--------------------|--2--3-2h3p2---2--3-|--5-----------------|
|--------1-----------|--2----------2-2----|------7p6--4--------|
|--------2-----0-----|--2-----------------|--6-----------7-----|
|--------2-----------|--0-----------------|--4-----------------|
|--------0-----------|---------------2----|--------------------|


|--------------------|--------------------|--5------7p5--------|
|--------------------|--5--7--5--0--2--5--|---------6----9--10-|
|--4--6p4----2-------|--4-----------2--4--|--5------5----------|
|--4---------2-------|-----------------5--|--3-----------------|
|--5---------0-------|--------------0-----|------7--6----------|
|--------------------|--4-----------------|--------------------|


|--------------------|-------------<12>---||
|----------------0---|--------------------||
|--6--9p7--6-----1---|-----2--------------||
|--7-------7-----0---|-----2--------------||
|--7--8----7---------|-----0--------------||
|-------------0----0-|--------------------||
                                   Fine

******************************************************************************
******************************************************************************


                     SUITE CASTALANA: ROMANCE DE LOS PINOS 
                     As recorded by Federico Moreno Torroba

Music by Federico Moreno Torroba

tuning - E A D G B E

 Q=50
 3/4

      |-3-|
  E E T T E E E E   H    S S S S   E S S H         E E E E E E
|-----------------|--------------|---------------|---2-------0--|
|-2-3-2h3p2---2-3-|-5------------|---------------|-5---5---2-0--|
|-2---------2-2---|------7p6-4---|-4-6-4-2-------|-------4-2-0--|
|-2-----------4---|-6----------7-|-4-----2-------|-2-------2----|
|-0---------------|-4------------|-5-------4-2-0-|---------0----|
|-----------------|--------------|---------------|-4---------3--|
  Q   Q       Q     H    Q         Q     E E E E   H       E E

  H      S S S S   E a E Q   Q     H.        E E E E E E
|-5------7-5---5-|---------------|---------|-0-1-0---0-1--|
|--------6---9---|-2-5p3-2---0---|---------|-------1------|
|-5------5-------|-2-----2---1---|-2-------|-2-------1----|
|-3-2-1----------|-2---3-2---0---|-2-------|--------------|
|----------------|---------------|-0-------|-3------------|
|----------------|---------0---0-|---------|--------------|
  E E Q  Q         E   E E E E E   H.        H       Q

  H    S S S S   H.        E E E E E E   H      S S S S
|-3----5-3---5-|-3-------|-0-1-0---0-1-|-3------1-0---1-|
|-1--------6---|-3-------|-------1-----|------------3---|
|------5-------|-4-------|-2-------1---|-4---0----------|
|-2----3-------|-5-------|-------------|--------0-------|
|--------------|---------|-3-----------|---2------------|
|--------------|---------|-------------|-0--------------|
  H    Q         H.        H       Q     E E Q  Q

  H.        E E E E E E   H    S S S S   H.
|-0-------|-0-1-0---0-1-|-3----5-3---5-|-3-----|
|-0-------|-------1-----|-1--------6---|-3-----|
|-1-------|-2-------1---|------5-------|-4-----|
|-2-------|-------------|-2----3-------|-5-----|
|---------|-3-----------|--------------|-------|
|---------|-------------|--------------|-------|
  H.        H       Q     H    Q         H.

                                               |-3-|
  E E E E E a E   H    S S S S   H.        E E T T E E E E
|-5-8-7-5-4-7p5-|-4----5h7-5h7-|-4-------|-----------------|
|---------------|-5------------|-5-------|-2-3-2h3p2---2-3-|
|-5-------------|-4----5-------|-4-------|-2---------2-2---|
|-3-7-5-3-2---3-|-2----3-------|-2-------|-2-----------4---|
|---------------|--------------|---------|-0---------------|
|---------------|--------------|---------|-----------------|
  E E E E E   E   H    Q         H.        Q   Q       Q

  H    S S S S   E S S H         E E E E E E   H      S S S S
|--------------|---------------|---2-------0-|-5------7-5---5-|
|-5------------|---------------|-5---5---2-0-|--------6---9---|
|------7p6-4---|-4-6-4-2-------|-------4-2-0-|-5------5-------|
|-6----------7-|-4-----2-------|-2-------2---|-3-2-1----------|
|-4------------|-5-------4-2-0-|---------0---|----------------|
|--------------|---------------|-4---------3-|----------------|
  H    Q         Q     E E E E   H       E E   E E Q  Q

  E a E Q   Q     Q   H      +E  E H
|---------------|-----0----|-(0)--------*|
|-2-5p3-2---0---|----------|------------*|
|-2-----2---1---|-2--------|-(2)--------*|
|-2---3-2---0---|-2--------|-(2)--------*|
|---------------|-0--------|-(0)--------*|
|---------0---0-|----------|------------*|
  E   E E E E E   H.         +E  E H

Duration Legend
---------------
H - half   Q - quarter   E - 8th   S - 16th   T - 32nd   a - acciaccatura
+ - note tied to previous    . - note dotted
Irregular groupings are notated above the duration line
Duration letters will always appear directly above the note/fret number they
represents the duration for.  Duration letters with no fret number below them
represent rests. Low melody durations appear below the staff.

Tablature Legend
----------------
 h   - hammer-on
 p   - pull-off

Misc Legend
-----------
 |  - bar
*|  - double bar (ending)
 :  - bar (freetime)





Comments


Popular Federico Moreno Torroba tabs & chords
Castles Of Spain Vol 1 - 1 Turegano Serranilla Tabs
Castles Of Spain Vol 1 - 3 Manzanares El Real Tabs
Castles Of Spain Vol 1 - 7 Alba De Tormes Tabs
Siete Piezas - 1 Segoviana Tabs
Siete Piezas - 3 Rumor De Copla Tabs
Siete Piezas - 5 Ay Malaguena Tabs
Siete Piezas - 7 Bolero Menorquin Tabs
Sonatina In A - 2 Andante Tabs
Suite Castellana - Arada Tabs
Suite Castellana - Danza Preambulo Tabs


Song lyrics



↑ Back to top | Tablatures and chords are parodies/interpretations of the original songs. You may use it for private study, scholarship, research or language learning purposes only
© 2014 AZChords.com Contact us | Privacy policy | DMCA | Add/correct tabs | Request tabs | Top 50 tabs