>
 >
Invisible Wounds 2

Invisible Wounds 2 Guitar Tabs

Fear Factory - Invisible Wounds 2 chords, tabs, tablatures, lyrics

Guitar lessons | Add/correct | Request | Top 50 tabs Artists:  A B C D E F G H I J K L M N O P Q R S T U V W X Y Z 0-9

Invisible Wounds 2 Guitar Tabs – Fear Factory

CD, Sheet music, Poster

Do you like Invisible Wounds 2? Share with your friends now
Bass TabsBass Tabs v2Bass Tabs v3TabsTabs v2Tabs v3Tabs v4Tabs v5Tabs v6
Tune down 1/2 a step
/ slide up
\ slide down
b bend
h hammer on
p pull off
*harmonics
x dead note
()remaining sound
. palm mute
' tremelo pick
^ Scratch the string

Intro:

e|------------------------------------------------------------------------------------------------|
B|------------------------------------------------------------------------------------------------|
G|----------------------------------------------------------------------------------6-------6-----|
D|-------4---4---4---4/6-6--------4---4---4---4/6-6--------7---7---7-6-7--------7-------7-----7---|
A|------------------------------------------------------------------------------------------------|
E|-2-2-2---2---2---2---------0-0-0---0---0---0-------5-5-5---5---5--------7-7-7---7---7---7-------|

Riff 2

e|---------------------------------------------------|
B|---------------------------------------------------|
G|---------------------------------------------------|
D|-4-4-4-4-4-4-4/6\4-2-2-2-2-2-2-2-6-6-7-7-7-7-7-7-7-|
A|-4-4-4-4-4-4-4/6\4-2-2-2-2-2-2-2-6-6-7-7-7-7-7-7-7-|
E|-2-2-2-2-2-2-2/4\2-0-0-0-0-0-0-0-4-4-5-5-5-5-5-5-5-|
     . .   .   .       . .   .   .       . .   .   .

Verse riff 1:
  (Dark bodies floating in darkness...............)
e|------------------------------------------------------------------------------------------------|
B|------------------------------------------------------------------------------------------------|
G|----------------------------------------------------------------------------------6-------6-----|
D|-------4---4---4---4/6-6--------4---4---4---4/6-6--------7---7---7-6-7--------7-------7-----7---|
A|------------------------------------------------------------------------------------------------|
E|-2-2-2---2---2---2---------0-0-0---0---0---0-------5-5-5---5---5--------7-7-7---7---7---7-------|

Verse riff 2:
(Unconcious over my concious..................)
e|-------------------------------------------------------------------------------------------------|
B|-------------------4---------------------4-------------------------------------------------------|
G|-------4---4---4-----4-------4---4---4-----4---------------------------------6-------6-----------|
D|----------------------------------------------------7---7---7-6-7--------7-------7-----7---------|
A|-------------------------------------------------------------------------------------------------|
E|-2-2-2---2---2---2-----0-0-0---0---0---0------5-5-5---5---5--------7-7-7---7---7---7-------------|

Chorus Riff:
(And I saw my face..............................)
e|---------------------------------------------------|2x
B|---------------------------------------------------|
G|---------------------------------------------------|
D|-4-4-4-4-4-4-4/6\4-2-2-2-2-2-2-2-6-6-7-7-7-7-7-7-7-|
A|-4-4-4-4-4-4-4/6\4-2-2-2-2-2-2-2-6-6-7-7-7-7-7-7-7-|
E|-2-2-2-2-2-2-2/4\2-0-0-0-0-0-0-0-4-4-5-5-5-5-5-5-5-|
     . .   .   .       . .   .   .       . .   .   .

Verse 2 riff 1:
(In Dreams I see myself flying..................)
e|------------------------------------------------------------------------------------------------|
B|------------------------------------------------------------------------------------------------|
G|----------------------------------------------------------------------------------6-------6-----|
D|-------4---4---4---4/6-6--------4---4---4---4/6-6--------7---7---7-6-7--------7-------7-----7---|
A|------------------------------------------------------------------------------------------------|
E|-2-2-2---2---2---2---------0-0-0---0---0---0-------5-5-5---5---5--------7-7-7---7---7---7-------|

Verse 3 riff 2:
(unconcious or am I concious...........)
e|-------------------------------------------------------------------------------------------------|
B|-------------------4---------------------4-------------------------------------------------------|
G|-------4---4---4-----4-------4---4---4-----4---------------------------------6-------6-----------|
D|----------------------------------------------------7---7---7-6-7--------7-------7-----7---------|
A|-------------------------------------------------------------------------------------------------|
E|-2-2-2---2---2---2-----0-0-0---0---0---0------5-5-5---5---5--------7-7-7---7---7---7-------------|

Chorus Riff:
(And I saw my face..............................)
e|---------------------------------------------------|2x
B|---------------------------------------------------|
G|---------------------------------------------------|
D|-4-4-4-4-4-4-4/6\4-2-2-2-2-2-2-2-6-6-7-7-7-7-7-7-7-|
A|-4-4-4-4-4-4-4/6\4-2-2-2-2-2-2-2-6-6-7-7-7-7-7-7-7-|
E|-2-2-2-2-2-2-2/4\2-0-0-0-0-0-0-0-4-4-5-5-5-5-5-5-5-|
     . .   .   .       . .   .   .       . .   .   .

Riff 3:

e|-------------------------------------------------------------------------------------------|
B|-------------------------------------------------------------------------------------------|
G|-------------------1-------------------1---------------------------------------------------|
D|-------4---4---2-----------4---4---2-----------7----6---7---6---6h7--------7---6---7---6h7-|
A|-------------------------------------------------------------------------------------------|
E|-2-2-2---2---2---2---0-0-0---0---0---0---5-5-5---5----5---5---5------7-7-7---7---7---7-----|

riff 4:
(unconcious over my concious...................)
e|-------------------------------------------------------------------|
B|-------------------4---------------------4-------------------------|
G|-------4---4---4-----4-------4---4---4-----4-----------------------|
D|----------------------------------------------------7---7---7-6-7--|
A|-------------------------------------------------------------------|
E|-2-2-2---2---2---2-----0-0-0---0---0---0------5-5-5---5---5--------|

Chorus:
(And I saw..............)
e|---------------------------------------------------|2x
B|---------------------------------------------------|
G|---------------------------------------------------|
D|-4-4-4-4-4-4-4/6\4-2-2-2-2-2-2-2-6-6-7-7-7-7-7-7-7-|
A|-4-4-4-4-4-4-4/6\4-2-2-2-2-2-2-2-6-6-7-7-7-7-7-7-7-|
E|-2-2-2-2-2-2-2/4\2-0-0-0-0-0-0-0-4-4-5-5-5-5-5-5-5-|
     . .   .   .       . .   .   .       . .   .   .

well, there you guys go, man, that is a hard song to learn, hope u enjoy it.
-Ryan Freeman





Comments


Popular Fear Factory tabs & chords
Cars 3 Bass Tabs
Demanufacture 2 Bass Tabs
Descent 2 Bass Tabs
Dog Day Sunrise 3 Bass Tabs
Flashpoint 3 Bass Tabs
New Breed 1 Bass Tabs
Replica 2 Bass Tabs
Slave Labor 2 Bass Tabs
Acres Of Skin 1 Tabs
Demanufacture 1 Tabs


Song lyrics



↑ Back to top | Tablatures and chords are parodies/interpretations of the original songs. You may use it for private study, scholarship, research or language learning purposes only
© 2014 AZChords.com Contact us | Privacy policy | DMCA | Add/correct tabs | Request tabs | Top 50 tabs