>
 >
Demanufacture 3

Demanufacture 3 Bass Tabs

Fear Factory - Demanufacture 3 chords, tabs, tablatures, lyrics

Guitar lessons | Add/correct | Request | Top 50 tabs Artists:  A B C D E F G H I J K L M N O P Q R S T U V W X Y Z 0-9

Demanufacture 3 Bass Tabs – Fear Factory

CD, Sheet music, Poster

Do you like Demanufacture 3? Share with your friends now
Bass TabsBass Tabs v2Bass Tabs v3TabsTabs v2Tabs v3

DEMANUFACTURE (Bassline)
As recorded by Fear Factory
(From the 1995 Album DEMANUFACTURE)

	

Words by Burton C Bell Music by Fear Factory

Gtr I (E A D G) - 'Christian'

 Intro
  Q=190
 4/4
  Gtr I
  W          W          W          W
|----------|----------|----------|------|
|----------|----------|----------|------|
|----------|----------|----------|------|
|----------|----------|----------|------|


  W          W          W          W
|----------|----------|----------|------|
|----------|----------|----------|------|
|----------|----------|----------|------|
|----------|----------|----------|------|


  W          W          W          W
|----------|----------|----------|------|
|----------|----------|----------|------|
|----------|----------|----------|------|
|----------|----------|----------|------|


  W          W          W          W
|----------|----------|----------|------|
|----------|----------|----------|------|
|----------|----------|----------|------|
|----------|----------|----------|------|


  W          W          W          W
|----------|----------|----------|------|
|----------|----------|----------|------|
|----------|----------|----------|------|
|----------|----------|----------|------|


  W          W          W          W
|----------|----------|----------|------|
|----------|----------|----------|------|
|----------|----------|----------|------|
|----------|----------|----------|------|


 Pre-Verse
  E E E E E E E E   E E E E E E E E   E E E E E E E E   E E E E E E E E
|-----------------|-----------------|-----------------|-----------------|
|-----------------|-----------------|-----------------|-----------------|
|-----------------|-----------------|-----------------|-----------------|
|-0-0-1-0---0-1-0-|---0-1-0---0-1-3-|-0-0-1-0---0-1-0-|---0-1-0-1-1-1-1-|


  E E E E E E E E   E E E E E E E E   E E E E E E E E   E E E E E E E E
|-----------------|-----------------|-----------------|-----------------|
|-----------------|-----------------|-----------------|-----------------|
|-----------------|-----------------|-----------------|-----------------|
|-0-0-1-0---0-1-0-|---0-1-0---0-1-3-|-0-0-1-0---0-1-0-|---0-1-0-1-1-1-1-|


 Verse 1
  W          W          W          W
|----------|----------|----------|------|
|----------|----------|----------|------|
|----------|----------|----------|------|
|----------|----------|----------|------|


  W          W          W          W
|----------|----------|----------|------|
|----------|----------|----------|------|
|----------|----------|----------|------|
|----------|----------|----------|------|


  E E E E E E E E   E E E E E E E E   E E E E E E E E   E E E E E E E E
|-----------------|-----------------|-----------------|-----------------|
|-----------------|-----------------|-----------------|-----------------|
|-----------------|-----------------|-----------------|-----------------|
|-0-0-1-0-0-0-1-0-|-0-0-1-0-0-0-1-3-|-0-0-1-0-0-0-1-0-|-0-0-1-0-1-1-1-1-|


  E E E E E E E E   E E E E E E E E   E E E E E E E E   E E E E E E E E
|-----------------|-----------------|-----------------|-----------------|
|-----------------|-----------------|-----------------|-----------------|
|-----------------|-----------------|-----------------|-----------------|
|-0-0-1-0-0-0-1-0-|-0-0-1-0-0-0-1-3-|-0-0-1-0-0-0-1-0-|-0-0-1-0-1-1-1-1-|


                           Interlude
  E E E E H      W          E E E E E E E E   E E E E E E E E
|--------------|----------|-----------------|-----------------|
|--------------|----------|-----------------|-----------------|
|--------------|----------|-----------------|-----------------|
|-0-0-1-0------|----------|-0-0-1-0---0-1-0-|---0-1-0---0-1-0-|


                                     Verse 2
  E E E E E E E E   E E E E E E E E   W          W
|-----------------|-----------------|----------|------|
|-----------------|-----------------|----------|------|
|-----------------|-----------------|----------|------|
|---0-1-0---0-1-0-|---0-1-0-1-1-1-1-|----------|------|


  W          W          W          W
|----------|----------|----------|------|
|----------|----------|----------|------|
|----------|----------|----------|------|
|----------|----------|----------|------|


  W          W          E E E E E E E E   E E E E E E E E
|----------|----------|-----------------|-----------------|
|----------|----------|-----------------|-----------------|
|----------|----------|-----------------|-----------------|
|----------|----------|-0-0-1-0-0-0-1-0-|-0-0-1-0-0-0-1-3-|


  E E E E E E E E   E E E E E E E E   E E E E E E E E   E E E E E E E E
|-----------------|-----------------|-----------------|-----------------|
|-----------------|-----------------|-----------------|-----------------|
|-----------------|-----------------|-----------------|-----------------|
|-0-0-1-0-0-0-1-0-|-0-0-1-0-1-1-1-1-|-0-0-1-0-0-0-1-0-|-0-0-1-0-0-0-1-3-|


                                     Pre-Chorus
  E E E E E E E E   E E E E E E E E   E E E E E E E E   E E E E E E E E
|-----------------|-----------------|-----------------|-----------------|
|-----------------|-----------------|-----------------|-----------------|
|-----------------|-----------------|-----------------|-----------------|
|-0-0-1-0-0-0-1-0-|-0-0-1-0-1-1-1-1-|-3-3-3-3-3-3-3-3-|-3-3-3-3-3-3-3-3-|


  E E E E E E E E   E E E E E E E E   E E E E E E E E   E E E E E E Q
|-----------------|-----------------|-----------------|----------------|
|-----------------|-----------------|-----------------|----------------|
|-----------------|-----------------|-----------------|----------------|
|-0-0-0-0-0-0-0-0-|-0-0-0-0-0-0-0-0-|-3-3-3-3-3-3-3-3-|-3-3-3-3-3-3-1--|


                                     Chorus (I've got no more...)
  E E E E E E E E   E E E E E E E E   E E E E E E E E   E E E E E E E E
|-----------------|-----------------|-----------------|-----------------|
|-----------------|-----------------|-----------------|-----------------|
|-----------------|-----------------|-----------------|-----------------|
|-0-0-0-0-0-0-0-0-|-0-0-0-0-0-0-0-0-|-0-0-0-0-0-0-1-3-|-0-0-0-0-0-0-1-0-|


  E E E E E E E E   E E E E E E E E   E E E E E E E E   E E E E E E E E
|-----------------|-----------------|-----------------|-----------------|
|-----------------|-----------------|-----------------|-----------------|
|-----------------|-----------------|-----------------|-----------------|
|-0-0-0-0-0-0-1-3-|-0-0-0-0-0-0-1-0-|-0-0-0-0-0-0-1-3-|-0-0-0-0-0-0-1-0-|


 Interlude (I'm the thorn)
  E E E E E E E E   E E E E E E E E   E E E E E E E E   E E E E E E E E
|-----------------|-----------------|-----------------|-----------------|
|-----------------|-----------------|-----------------|-----------------|
|-----------------|-----------------|-----------------|-----------------|
|-0-0-0-0-0-0-1-3-|-0-0-0-0-0-0-1-0-|-0-0-0-0-0-0-0-0-|-3-3-3-3-1-1-1-1-|


  E E E E E E E E   E E E E E E E E   E E E E E E E E   E E E E E E E E
|-----------------|-----------------|-----------------|-----------------|
|-----------------|-----------------|-----------------|-----------------|
|-----------------|---------0-0-0-0-|-----------------|-----------------|
|-0-0-0-0-0-0-0-0-|-3-3-3-3---------|-0-0-0-0-0-0-0-0-|-3-3-3-3-1-1-1-1-|


                                     Interlude
  E E E E E E E E   E E E E E E E E   E E E E E E E E   E E E E E E E E
|-----------------|-----------------|-----------------|-----------------|
|-----------------|-----------------|-----------------|-----------------|
|-----------------|---------0-0-0-0-|-------------1-1-|-----------------|
|-0-0-0-0-0-0-0-0-|-3-3-3-3---------|-0-0-0-0-0-0-----|-3-3-3-3-3-3-3-3-|


  E E E E E E E E   E E E E E E E E   E E E E E E E E   E E E E E E E E
|-----------------|-----------------|-----------------|-----------------|
|-----------------|-----------------|-----------------|-----------------|
|-------------1-1-|-----------------|-------------1-1-|-----------------|
|-0-0-0-0-0-0-----|-3-3-3-3-3-3-3-3-|-0-0-0-0-0-0-----|-3-3-3-3-3-3-3-3-|


  E E E E E E E E   E E E E E E E E   E E +S  S S S E E +S  S S S
|-----------------|-----------------|-----------------------------|
|-----------------|-----------------|-----------------------------|
|-------------1-1-|-----------------|-----------------------------|
|-0-0-0-0-0-0-----|-3-3-3-3-3-3-3-3-|-0-0-(0)---0-0-0-0-(0)---0-0-|


  E E +S  S S S E E +S  S S S   E E +S  S S S E E +S  S S S   E E E E E E E E
|-----------------------------|-----------------------------|------------------|
|-----------------------------|-----------------------------|------------------|
|-----------------------------|-----------------------------|------------------|
|-3-3-(3)---3-3-1-1-(1)---1-1-|-0-0-(0)---0-0-0-0-(0)---0-0-|-1-1-1-1-1-1-1-1--|


 (I'm the thorn)
  E E E E E E E E   E E E E E E E E   E E E E E E E E   E E E E E E E E
|-----------------|-----------------|-----------------|-----------------|
|-----------------|-----------------|-----------------|-----------------|
|-----------------|-----------------|-----------------|---------0-0-0-0-|
|-0-0-0-0-0-0-0-0-|-3-3-3-3-1-1-1-1-|-0-0-0-0-0-0-0-0-|-3-3-3-3---------|


  E E E E E E E E   E E E E E E E E   E E E E E E E E   E E E E E E E E
|-----------------|-----------------|-----------------|-----------------|
|-----------------|-----------------|-----------------|-----------------|
|-----------------|-----------------|-----------------|---------0-0-0-0-|
|-0-0-0-0-0-0-0-0-|-3-3-3-3-1-1-1-1-|-0-0-0-0-0-0-0-0-|-3-3-3-3---------|


   Interlude
    E E E E E E E E   E E E E E E E E   E E E E E E E E   E E E E E E E E   5x
||------------------|-----------------|-----------------|-------------------||
||o-----------------|-----------------|-----------------|------------------o||
||o-------------1-1-|-----------------|-------------1-1-|------------------o||
||--0-0-0-0-0-0-----|-3-3-3-3-3-3-3-3-|-0-0-0-0-0-0-----|-3-3-3-3-3-3-3-3---||


  E E E E E E E E   E E E E E E E E   E E E E E E E E   E E E E E E E E
|-----------------|-----------------|-----------------|-----------------|
|-----------------|-----------------|-----------------|-----------------|
|-------------1-1-|-----------------|-------------1-1-|-----------------|
|-0-0-0-0-0-0-----|-3-3-3-3-3-3-3-3-|-0-0-0-0-0-0-----|-3-3-3-3-3-3-3-3-|


 Guitar Break
  E E E E Q  E E   E E E E E E E E   E E E E E E Q    E E E E E E E E
|----------------|-----------------|----------------|-----------------|
|----------------|-----------------|----------------|-----------------|
|----------------|-----------------|----------------|-----------------|
|-0-0-1-0----0-0-|-0-0-0-0-0-0-0-0-|-0-0-0-0-1-0----|-0-0-0-0-0-0-0-0-|


  E E E E E E E E   Q  E E E E E E   E E E E E E E E   E E Q  E E E E
|-----------------|----------------|-----------------|----------------|
|-----------------|----------------|-----------------|----------------|
|-----------------|----------------|-----------------|----------------|
|-0-0-0-0-0-0-1-0-|----0-0-0-0-0-0-|-0-0-0-0-0-0-0-0-|-1-0----0-0-0-0-|


  E E E E E E E E   E E E E Q  E E   Q  E E E E E E   E E E E E E E E
|-----------------|----------------|----------------|-----------------|
|-----------------|----------------|----------------|-----------------|
|-----------------|----------------|----------------|-----------------|
|-0-0-0-0-0-0-0-0-|-0-0-1-0----0---|----0-0-0-0-0-0-|-1-3-0-0-0-0-0-0-|


  E E E E E E E E   E E E E E E E E   E E E E E E E E   E E E E E E E E
|-----------------|-----------------|-----------------|-----------------|
|-----------------|-----------------|-----------------|-----------------|
|-----------------|-----------------|-----------------|-----------------|
|-1-0-0-0-0-0-0-0-|-1-3-0-0-0-0-0-0-|-1-0-0-0-0-0-0-0-|-1-3-0-0-0-0-0-0-|


  E E E E E E E E   E E E E E E E E   E E E E E E E E   E E E E E E E E
|-----------------|-----------------|-----------------|-----------------|
|-----------------|-----------------|-----------------|-----------------|
|-----------------|-----------------|-----------------|-----------------|
|-1-0-0-0-0-0-0-0-|-1-3-0-0-0-0-0-0-|-1-0-0-0-0-0-0-0-|-1-3-0-0-0-0-0-0-|


  E E E E E E E E   E E E E E E E E   E E E E E E E E   E E E E E E E E
|-----------------|-----------------|-----------------|-----------------|
|-----------------|-----------------|-----------------|-----------------|
|-----------------|-----------------|-----------------|-----------------|
|-1-0-0-0-0-0-0-0-|-1-3-0-0-0-0-0-0-|-1-0-0-0-0-0-0-0-|-1-3-0-0-0-0-0-0-|


                                                    Breakdown (I've got no)
  E E E E E E E E   E E E E E E E E   E E E E H      W
|-----------------|-----------------|--------------|------|
|-----------------|-----------------|--------------|------|
|-----------------|-----------------|--------------|------|
|-1-0-0-0-0-0-0-0-|-1-3-0-0-0-0-0-0-|-1-0-0--------|------|


  W          W          Q  E E E E Q    E E E E E E Q
|----------|----------|---------------|----------------|
|----------|----------|---------------|----------------|
|----------|----------|---------------|----------------|
|----------|----------|----0-----0----|-1-3-0-----0----|


  E E E E E E Q    E E E E E E Q    E E E E E E E E   E E E E E E E E
|----------------|----------------|-----------------|-----------------|
|----------------|----------------|-----------------|-----------------|
|----------------|----------------|-----------------|-----------------|
|-1-3-0-----0----|-1-3-0-----0----|-1-3-0-0-0-0-0-0-|-1-3-0-0-0-0-0-0-|


  E E E E E E E E   E E E E E E E E   E E E E E E E E   E E E E E E E E
|-----------------|-----------------|-----------------|-----------------|
|-----------------|-----------------|-----------------|-----------------|
|-----------------|-----------------|-----------------|-----------------|
|-1-0-0-0-0-0-0-0-|-1-3-0-0-0-0-0-0-|-1-0-0-0-0-0-0-0-|-1-3-0-0-0-0-0-0-|


                                     Outro
  E E E E E E E E   E E E E E E E E   E E E E E E E E   E E E E E E E E
|-----------------|-----------------|-----------------|-----------------|
|-----------------|-----------------|-----------------|-----------------|
|-----------------|-----------------|-----------------|-----------------|
|-1-0-0-0-0-0-0-0-|-1-3-0-0-0-0-0-0-|-1-0-0-0-0-0-0-0-|-0-0-0-0-0-0-0-0-|


  E E E E E E E E   E E E E E E E E   E E E E E E E E   E E E E E E E E
|-----------------|-----------------|-----------------|-----------------|
|-----------------|-----------------|-----------------|-----------------|
|-----------------|-----------------|-----------------|-----------------|
|-0-0-1-1-1-1-1-1-|-1-1-1-1-1-1-1-1-|-1-1-0-0-0-0-0-0-|-0-0-0-0-0-0-0-0-|


  E E E E E E E E   E E E E E E E E   E E E E E E E E   E E E E E E E E
|-----------------|-----------------|-----------------|-----------------|
|-----------------|-----------------|-----------------|-----------------|
|-----0-0-0-0-0-0-|-0-0-------------|-----------------|-----------------|
|-0-0-------------|-----3-3-3-3-1-1-|-1-1-0-0-0-0-0-0-|-1-3-0-0-0-0-0-0-|


  E E E E E E E E   E E E E E E E E   E E E E E E E E   E E E E E E E E
|-----------------|-----------------|-----------------|-----------------|
|-----------------|-----------------|-----------------|-----------------|
|-----------------|-----------------|-----------------|-----------------|
|-1-0-0-0-0-0-0-0-|-1-3-0-0-0-0-0-0-|-1-0-0-0-0-0-0-0-|-1-3-0-0-0-0-0-0-|


  E E E E E E E E   E E E E E E E E   E E E E E E Q
|-----------------|-----------------|----------------*|
|-----------------|-----------------|----------------*|
|-----------------|-----------------|----------------*|
|-1-0-0-0-0-0-0-0-|-1-3-0-0-0-0-0-0-|-1-0-0-0-1-0----*|



Duration Legend
---------------
W - whole; H - half; Q - quarter; E - 8th; S - 16th; T - 32nd; X - 64th; a - acciaccatura
+ - note tied to previous; . - note dotted; .. - note double dotted
Uncapitalized letters represent notes that are staccato (1/2 duration)
Irregular groupings are notated above the duration line
Duration letters will always appear directly above the note/fret number it represents the
duration for.  Duration letters with no fret number below them represent rests.  Multi-
bar rests are notated in the form Wxn, where n is the number of bars to rest for.  Low
melody durations appear below the staff

Tablature Legend
----------------
 h   - hammer-on
 p   - pull-off
 b   - bend
 pb  - pre-bend
 r   - bend release (if no number after the r, then release immediately)
 /\  - slide into or out of (from/to "nowhere")
 s   - legato slide
 S   - shift slide
 - natural harmonic
[n]  - artificial harmonic
n(n) - tapped harmonic
 ~   - vibrato
 tr  - trill
 T   - tap
 TP  - trem. picking
 PM  - palm muting
\n/  - tremolo bar dip; n = amount to dip
 \n  - tremolo bar down
 n/  - tremolo bar up
/n\  - tremolo bar inverted dip
 =   - hold bend; also acts as connecting device for hammers/pulls
 <> - volume swell (louder/softer)
 x   - on rhythm slash represents muted slash
 o   - on rhythm slash represents single note slash

Misc Legend
-----------
 |  - bar
||  - double bar
||o - repeat start
o|| - repeat end
*|  - double bar (ending)
 :  - bar (freetime)
 $  - Segno
 &  - Coda
Tempo markers -  = BPM(8/16=s8/s16), where s8 = swing 8ths, s16 = swing 16ths





Comments


Popular Fear Factory tabs & chords
Empty Vision Bass Tabs
Martyr 2 Bass Tabs
Pisschrist Bass Tabs
What Will Become Bass Tabs
Cars Tabs
Crisis Tabs
Cyberwaste 2 Tabs
Descent 3 Tabs
Zero Signal Tabs
Zero Signal 1 Tabs


Song lyrics



↑ Back to top | Tablatures and chords are parodies/interpretations of the original songs. You may use it for private study, scholarship, research or language learning purposes only
© 2014 AZChords.com Contact us | Privacy policy | DMCA | Add/correct tabs | Request tabs | Top 50 tabs