» » »

Fear Factory, Archetype Tabs (ver.3)

Artists:  A B C D E F G H I J K L M N O P Q R S T U V W X Y Z # 

Archetype Tabs (ver.3)

Fear Factory Tabs
 Rating:
4/5 (6 votes)
Archetype lessons Tabs too difficult? Try these video lessons and learn fast
1
                

Ok. esta cancion es una de las mas perras de fear factory y aqui esta mi tab escrita para 6 cuerdas
Ok. This song is f**king Great! !!! tabbed for 6 string guitar 

Tuning= Drop B (low to high) B.F#.B.E.G#.C#

x= Palm Mute

Riff 1 x2 (listen the rhythm)
C#|----------------------------|
G#|----------------------------|
E |----------------------------|
B |-5----3----1----3-----------| 
F#|-5----3----1----3-----------|
B |-5..--3..--1..--3..---------|
 

Verse
                                   x1
  |----------------------------------|
  |----------------------------------|
  |----------------------------------|
  |----------------------------------| 
  |-211-----211---211-211-211--------|
  |-211-----211---211-211-211--------|
    xxx     xxx   xxx xxx xxx
                                   x2
  |----------------------------------|
  |----------------------------------|
  |----------------------------------|
  |----------------------------------| 
  |---------211---211-211-211--------|
  |---------211---211-211-211--------|
            xxx   xxx xxx xxx
                                   x1  
  |----------------------------------|
  |----------------------------------|
  |----------------------------------|
  |----------------------------------| 
  |----211-211----211-211-211--------|
  |----211-211----211-211-211--------|
       xxx xxx    xxx xxx xxx
                                           x4
  |------------------------------------------|
  |------------------------------------------|
  |------------------------------------------|
  |------------------------------------------| 
  |----211211---211---211---211-211-211------|
  |----211211---211---211---211-211-211------|
       xxxxxx   xxx   xxx   xxx xxx xxx

Riff 1 x2

Verse  x1

Riff 1 X2

Break
                          x4
  |-------------------------|
  |-------------------------|
  |-------------------------|
  |-------------------------| 
  |-------------------------|
  |-55-3-5-555-3-5-3-6-8----|

                          x4
  |-------------------------|
  |-------------------------|
  |-------------------------| 
  |-------------------------|
  |-55-3-5-555-3-5-3-6-8----|
  |-55-3-5-555-3-5-3-6-8----|


Clean

  |-------------------------------------------------------|
  |----------8---------------------------------3----------|
  |------------7--------------7------------------3--------| 
  |----0----------------0----------------0----------------|
  |-------------------------------------------------------|
  |-5----------------3---------------1--------------1---3-|

Riff 1 x2

Outro
                                                  x2
C#|--------------------------------------------------|
G#|--------------------------------------------------|
E |--------------------------------------------------|
B |-3-5-5-5-5---5-3-3-3-3---0-1-1-1-1---1-3-3-3-3----| 
F#|-3-5-5-5-5---5-3-3-3-3---0-1-1-1-1---1-3-3-3-3----|
B |-3-5-5-5-5---5-3-3-3-3---0-1-1-1-1---1-3-3-3-3----|
           
   (listen the rhythm)                             x3
C#|--------------------------------------------------|
G#|--------------------------------------------------|
E |--------------------------------------------------|
B |--5-5-5-5..---3-3-3-3..---1-1-1-1..---3-3-3-3..---| 
F#|--5-5-5-5..---3-3-3-3..---1-1-1-1..---3-3-3-3..---|
B |--5-5-5-5..---3-3-3-3..---1-1-1-1..---3-3-3-3..---|

C#|--------------------------------------------------|
G#|--------------------------------------------------|
E |--------------------------------------------------|
B |--5-5-5-5..---3-3-3-3..---1-1-1-1x----------------| 
F#|--5-5-5-5..---3-3-3-3..---1-1-1-1x----------------|
B |--5-5-5-5..---3-3-3-3..---1-1-1-1x----------------|
                            End here^


Comments, corrections.. 


H A T E cKems...
            
Submit corrections

comments powered by Disqus
↑ Back to top | Fear Factory Tabs for Archetype. Lyrics for acoustic guitar and electric guitar. 1 Tablatures and chords are parodies/interpretations of the original songs. You may use it for private study, scholarship, research or language learning purposes only