» » »

Fat Freddys Drop, Cays Crays Bass tabs (ver.1)

Artists:  A B C D E F G H I J K L M N O P Q R S T U V W X Y Z # 

Cays Crays Bass tabs (ver.1)

Fat Freddys Drop Tabs
 Rating:
4/5 (4 votes)
Cays Crays lessons Tabs too difficult? Try these video lessons and learn fast
1
                -------------------------------------------------------------------------------
			     Cay's Crays - Fat Freddy's Drop
-------------------------------------------------------------------------------



Tuning: Standard (E,A,D,G)


INTRO:

G|-4--2---2\-----------------------------------------------------------------|
D|------4--------------------------------------------------------------------|
A|---------------------------------------------------------------------------|
E|---------------------------------------------------------------------------|


VERSE 1:


G|---------------------------------------------------------------------------|
D|---------2-2-4-4---------2-2-4-4-------------------------------------------|
A|-2---2--2--------2---2--2--------------------------------------------------|
E|---------------------------------------------------------------------------|

G|-------------------------2---6--4--2---2\----------------------------------|
D|---------2-2-4-4-------4---4/--------4-------------------------------------|
A|-2---2--2--------2---2-----------------------------------------------------|
E|---------------------------------------------------------------------------|


Do that for most of the song


At about 2:01 stop doing the end riff bit and just do this:

G|---------------------------------------------------------------------------|
D|---------2-2-4-4---------2-2-4-4-------------------------------------------|
A|-2---2--2--------2---2--2--------------------------------------------------|
E|---------------------------------------------------------------------------|

G|---------------------------------------------------------------------------|
D|---------2-2-4-4---------2-2-4-4-------------------------------------------|
A|-2---2--2--------2---2--2--------------------------------------------------|
E|---------------------------------------------------------------------------|


At about 3:26 do this:


G|---------2---6--4--2---2\--------------------------------------------------|
D|-------4---4---------4-----------------------------------------------------|
A|-2---2-------------------2-------------------------------------------------|
E|---------------------------------------------------------------------------|


Then miss out the first note of the verse like this:


G|---------------------------------------------------------------------------|
D|---------2-2-4-4---------2-2-4-4-------------------------------------------|
A|-----2--2--------2---2--2--------------------------------------------------|
E|---------------------------------------------------------------------------|


At about 5:00 do this again:


G|---------2---6--4--2---2\--------------------------------------------------|
D|-------4---4---------4-----------------------------------------------------|
A|-2---2-------------------2-------------------------------------------------|
E|---------------------------------------------------------------------------|


VERSE 2


Wait, then do this for a while:

G|---------------------------------------------------------------------------|
D|------------2-3h4h---------------------------------2-3h4h------------------|
A|---------------------------------------------------------------------------|
E|---------------------------------------------------------------------------|


At about 5:27 do this once:


G|------------2-3h4h---------------------------------------------------------|
D|---------------------------------------------------------------------------|
A|---------------------------------------------------------------------------|
E|---------------------------------------------------------------------------|


Then do this six times:


G|---------------------------------------------------------------------------|
D|------------2-3h4h---------------------------------------------------------|
A|---------------------2---2-------------------------------------------------|
E|---------------------------------------------------------------------------|


Then do this:


G|-----------------------------2---6--4\-------------------------------------|
D|------------2-3h4h---------4---4/------2-3h4h------------------------------|
A|---------------------2---2-------------------------------------------------|
E|---------------------------------------------------------------------------|


Then do this 2 times:


G|---------------------------------------------------------------------------|
D|---------2-2-4-4---------2-2-4-4-------------------------------------------|
A|-2---2--2--------2---2--2--------------------------------------------------|
E|---------------------------------------------------------------------------|


Then do verse 1 twice

Then finally end on this:


G|---------------------------------------------------------------------------|
D|---------2-2-4-4---------2-2-4-4-------------------------------------------|
A|-2---2--2--------2---2--2--------------------------------------------------|
E|---------------------------------------------------------------------------|

G|---------------------------------------------------------------------------|
D|---------2-2-4-4-----------------------------------------------------------|
A|-2---2--2--------2---------------------------------------------------------|
E|---------------------------------------------------------------------------|



| /  slide up
| \  slide down
| h  hammer-on
| p  pull-off
| ~  vibrato
| +  harmonic
| x  Mute note
===============================================================================
            
Submit corrections

comments powered by Disqus
↑ Back to top | Fat Freddys Drop Bass for Cays Crays. Lyrics for acoustic guitar and electric guitar. 1 Tablatures and chords are parodies/interpretations of the original songs. You may use it for private study, scholarship, research or language learning purposes only