» » »

Cays Crays Tabs (ver.1)

Artists:  A B C D E F G H I J K L M N O P Q R S T U V W X Y Z # 

Cays Crays Tabs (ver.1)

Fat Freddys Drop
Rating:
0/5 (0 votes)

Hard to play? Try these video lessons and learn fast.
                ---------------------------------------------------
---------Cay's Crays - Fat Freddy's Drop-----------
---------------------------------------------------

this is only the basic riff, and the chords that are played throughout the song 
are something along the lines of Bm7, Em and Fm7

Tuning: EADGBe


   Bm7              Em          Fm7
e|----------------------------------(9)---------------------------|
B|--------7-10-7------7-10-7--------10----------------------------|
G|-------7-----------7------7-------9-----------------------------|
D|------7-----------9------------11-------------------------------|
A|----------------------------------------------------------------|
E|--7-------------------------------------------------------------|


Lyrics:
Do I question my loyalties?
Do I try to work it out?

Well you're the part of my memories
That I never wanna live without
So long I've been gone
So many things have changed
But I know where I belong and
I know when I reach that place

Oh, I know when I reach that place
Yeah yeah yeah yeah

I see the rain come down while the sun is shining
I see them dance into the night

I see the rain come down while the sun is shining
Stand at the base of your mountain high
Dance into the night

The skank beat rockin' my life (x6)

The Skank beat rockin' my life, ooh yeah
The Skank beat rockin' my life, I keep telling you

The Skank beat rockin' my life, yeah
The Skank beat rockin' my life, I keep telling you

The Skank beat rockin' life, yeah
The Skank beat rockin' my life, I keep telling you
The Skank beat rockin' my life, I keep telling you
The Skank beat rockin' my life, I keep telling you
The Skank beat rockin' my life, I keep telling you
The Skank be the rock.......

Fire
Starts in my heart when I reach that place
Home again where I belong

Fire
Starts in my heart when I reach that place
Have I been away too long?

Fire
Starts in my heart when I reach that place
Home again where I belong

Fire
Starts in my heart when I reach that place
Have I been away too long?
Have I been away too long?
            
Hard to play? Try these video lessons and learn fast. | Correct




comments powered by Disqus
↑ Back to top | Tablatures and chords are parodies/interpretations of the original songs. You may use it for private study, scholarship, research or language learning purposes only