» » »

Fastway, Say What You Will Tabs (ver.1)

Artists:  A B C D E F G H I J K L M N O P Q R S T U V W X Y Z # 

Say What You Will Tabs (ver.1)

Fastway Tabs
 Rating:
3.7/5 (6 votes)
Say What You Will lessons Tabs too difficult? Try these video lessons and learn fast
1
                Say what you will


Tuning: Standard

e|----------------------------------------------------------------|
B|-2------------------------7--77---5-----------------------------|
G|-2----5-6-7-7-6-5---------7--77---5---7--77---------------------|
D|-2----------------7-6-5---7--77---5---7--77---------------------|
A|-0------------------------5--55---3---7--77---------------------|
E|--------------------------------------5--55---------------------|

e|------------------------------------------|
B|----------------------7--77---5-----------|
G|---5-6-7-7-6-5--------7--77---5---7--77---|
D|-7-------------7-6-5--7--77---5---7--77---|
A|----------------------5--55---3---7--77---|
E|----------------------------------5--55---|X6


e|-----------------------------------------------|
B|----------------------7--77---5----------------|
G|---5-6-7-7-6-5--------7--77---5---7--77--------|
D|-7-------------7-6-5--7--77---5---7--77--------|
A|----------------------5--55---3---7--77--------|
E|----------------------------------5--55--------|

e|---------------------------------------------------------------------|
B|---------------------------------------------------------------------|
G|---5-7-----7-5-----5-7---7-5----------5-7-----7-5-----5-7---7-5------|
D|---5-7-----7-5-----5-7---7-5---77-----5-7-----7-5-----5-7---7-5---77-|
A|-0-3-5---0-5-3---0-3-5-0-7-3-0-77---0-3-5---0-5-3---0-3-5-0-5-3-0-77-|
E|-------------------------------55---------------------------------55-|

e|------------------------------------------|
B|----------------------7--77---5-----------|
G|---5-6-7-7-6-5--------7--77---5---7--77---|
D|-7-------------7-6-5--7--77---5---7--77---|
A|----------------------5--55---3---7--77---|
E|----------------------------------5--55---|X4

e|---------------------------------------------------------------------|
B|---------------------------------------------------------------------|
G|---5-7-----7-5-----5-7---7-5----------5-7-----7-5-----5-7---7-5------|
D|---5-7-----7-5-----5-7---7-5---77-----5-7-----7-5-----5-7---7-5---77-|
A|-0-3-5---0-5-3---0-3-5-0-7-3-0-77---0-3-5---0-5-3---0-3-5-0-5-3-0-77-|
E|-------------------------------55---------------------------------55-|

e|------------------------------------------|
B|----------------------7--77---5-----------|
G|---5-6-7-7-6-5--------7--77---5---7--77---|
D|-7-------------7-6-5--7--77---5---7--77---|
A|----------------------5--55---3---7--77---|
E|----------------------------------5--55---|X4

Solo
e|--------------------------------------------------------------------|
B|------------7b---7b—--7b---7b---7b---7b---7b---7b---7b---7b---7b----|
G|------------7b---7b---7b---7b---7b---7b---7b---7b---7b---7b---7b----|
D|-------7---9—---9---9----9----9----9----9----9----9----9----9-------|
A|-7-8-9---9----------------------------------------------------------|
E|--------------------------------------------------------------------|

e|--------------------------------------------------------------------|
B|-10-10b-10—-10b-10-7------------------------------------------------|
G|---------------------10--9--7---------------------------------------|
D|--------------------------------------------------------------------|
A|--------------------------------------------------------------------|
E|--------------------------------------------------------------------|

e|--------------------------------------------------------------------|
B|--------------------------------------------------------------------|
G|-7-7-6-6-4-4-2-4-4b-4-2-4-------------------------------------------|
D|--------------------------------------------------------------------|
A|--------------------------------------------------------------------|
E|--------------------------------------------------------------------|

e|----10-----10-----10-----10-----10-----10-----10-----10-------------|
B|----10-----10-----10-----10-----10-----10-----10-----10-------------|
G|-12b----12b----12b----12b----12b----12b----12b----12b---------------|
D|--------------------------------------------------------------------|
A|--------------------------------------------------------------------|
E|--------------------------------------------------------------------|

e|--------------------------------------------------------------------|
B|--------------------------------------------------------------------|
G|-9-9-9-9-9--7-7-7-7-7--6-6-6-6-6--4-4-4-4-4-------------------------|
D|--------------------------------------------------------------------|
A|--------------------------------------------------------------------|
E|--------------------------------------------------------------------|

e|--------------------------------------------------------------------|
B|--------------------------------------------------------------------|
G|-9-9-9-9-9--7-7-7-7-7--6-6-6-6-6--4---------------------------------|
D|--------------------------------------77----------------------------|
A|--------------------------------------77----------------------------|
E|--------------------------------------55----------------------------|

e|------------------------------------------|
B|----------------------7--77---5-----------|
G|---5-6-7-7-6-5--------7--77---5---7--77---|
D|-7-------------7-6-5--7--77---5---7--77---|
A|----------------------5--55---3---7--77---|
E|----------------------------------5--55---|X4

e|---------------------------------------------------------------------|
B|---------------------------------------------------------------------|
G|---5-7-----7-5-----5-7---7-5----------5-7-----7-5-----5-7---7-5------|
D|---5-7-----7-5-----5-7---7-5---77-----5-7-----7-5-----5-7---7-5---77-|
A|-0-3-5---0-5-3---0-3-5-0-7-3-0-77---0-3-5---0-5-3---0-3-5-0-5-3-0-77-|
E|-------------------------------55---------------------------------55-|

e|------------------------------------------|
B|----------------------7--77---5-----------|
G|---5-6-7-7-6-5--------7--77---5---7--77---|
D|-7-------------7-6-5--7--77---5---7--77---|
A|----------------------5--55---3---7--77---|
E|----------------------------------5--55---|X4

e|---------------------------------------------------------------------|
B|---------------------------------------------------------------------|
G|---5-7-----7-5-----5-7---7-5----------5-7-----7-5-----5-7---7-5------|
D|---5-7-----7-5-----5-7---7-5---77-----5-7-----7-5-----5-7---7-5---77-|
A|-0-3-5---0-5-3---0-3-5-0-7-3-0-77---0-3-5---0-5-3---0-3-5-0-5-3-0-77-|
E|-------------------------------55---------------------------------55-|

e|--------------------------------------------------------------------|
B|--------------------------------------------------------------------|
G|-7-5--7-5--7-5-------5--7-------------------------------------------|
D|-7-5--7-5--7-5-------5--7-------------------------------------------|
A|-5-3--5-3--5-3-------3--5-------------------------------------------|
E|--------------------------------------------------------------------|
                     YOU WILL
            
Submit corrections

comments powered by Disqus
↑ Back to top | Fastway Tabs for Say What You Will. Lyrics for acoustic guitar and electric guitar. 1 Tablatures and chords are parodies/interpretations of the original songs. You may use it for private study, scholarship, research or language learning purposes only