» » »

You're So Vain Tabs (ver.1)

Artists:  A B C D E F G H I J K L M N O P Q R S T U V W X Y Z # 

You're So Vain Tabs (ver.1)

Faster Pussycat
Rating:
0/5 (0 votes)

Hard to play? Try these video lessons and learn fast.
                This is a rocked up cover of an old Carly Simon song performed Faster Pussycat. I
around the Internet looking for a tab for it but couldn't find one (not even a bad one) 
I
work on my own version. I will eventually do the whole thing and perhaps put it up here, 
for not let's see what people think of this.

- Jordan Lee Smith

Intro

One guitar plays the intro rhythm like this.
e------------------------------------------------------|
B------------------------------------------------------|
G------------------------------------------------------|
D------------------------------------------------------|
A-----6-s-7w-------------------------------------------|
E-----4-s-5w-------------------------------------------|

e------------------------------------------------------|
B------------------------------------------------------|
G------------------------------------------------------|
D---------5-----5---5-----5---5-----5-----5-----5------|
A-----7-7-3-5-5-3-5-3-7-7-3-7-3-7-7-3-7-7-3-7-7-3-7----|
E-----5-5---7-7---7---5-5---5---5-5---5-5---5-5---5----|

Now a second guitar comes in and plays this part 4 times.
e------------------------------------------------------|
B------------------------------------------------------|
G----3-s-5-5-5-----------------------------------------|
D--------------5-5-s-7---------------------------------|
A------------------------------------------------------|
E------------------------------------------------------|

Now you do it like this twice.
e------------------------------------------------------|
B------------------------------------------------------|
G-----15-s-17-17-17-17---------------------------------|
D----------------------17-17-s-19----------------------|
A------------------------------------------------------|
E------------------------------------------------------|

Once like this
e------------------------------------------------------|
B------------------------------------------------------|
G-----15-s-17-17-17------------------------------------|
D-------------------17-17-s-19-------------------------|
A------------------------------------------------------|
E------------------------------------------------------|

Finish with this one.
e------------------------------------------------------|
B------------------------------------------------------|
G-----15-s-17-17-17----15-s-17-------------------------|
D-------------------17---------17-s-19-----------------|
A------------------------------------------------------|
E------------------------------------------------------|

Verse

The rhythm is pretty simple, all easy chords. Drive 'em out!
e------------------------------------------------------|
B------------------------------------------------------|
G------------------------------------------------------|
D---------------5------------------------5-------------|
A-----7---7-7---3-7----5-7---7-7---7-7---3-7---5-7-----|
E-----5---5-5-----5----3-5---5-5---5-5-----5---3-5-----|

Pre-Chorus

My favourite part, love how the lead follows Taime's voice.
e------------------------------------------------------|
B------------------------------------------------------|
G------------------------------------------------------|
D---------------------7b-bd-7-5---5--------------------|
A-----7---5-5-7-----------------7----------------------|
E-----5---3-3-5----------------------------------------|

Anyway, now it goes into the chorus which I haven't yet tried to work out. All the
are exactly the same as are the pre-choruses. And if you were wondering why I didn't tab out
lead licks in the verse, I play in a one guitar band, so I don't use them. Anyway hope 
enjoy!

- Jordan Lee Smith (26th September 2006)
            
Hard to play? Try these video lessons and learn fast. | Correct




comments powered by Disqus
↑ Back to top | Tablatures and chords are parodies/interpretations of the original songs. You may use it for private study, scholarship, research or language learning purposes only