» » »

Fastball, Emily Tabs (ver.1)

Artists:  A B C D E F G H I J K L M N O P Q R S T U V W X Y Z # 

Emily Tabs (ver.1)

Fastball Tabs
Rating:
5/5 (2 votes)
Emily lessons Tabs too difficult? Try these video lessons and learn fast
                

This is the first tab I've ever made; I love this song, and nobody's made a decent 
tab for it it seems.
I may have messed up the rhythm a little, but it sounds pretty close to me.
This song has two guitars, but I've tried to transpose it so you can play it with one.

Update: Fixed some of the chords.

/=Slide up
\=Slide down
b=Bend
r=Release
h=Hammer-on
p=Pull-off

-Intro-

Chords:
  D            E                  G            D
E|---------------------------------------------------------------|
B|---------------------------------------------------------------|
G|----7---7---------7---7-------------7---7----------------------|
D|/7--------7--6--6-------6-------5---------5--4---4-4-4---5---6-|
A|---------------------------------------------------------------|
E|---------------------------------------------------------------|

  D            E                  G            D
E|---------------------------------------------------------------|
B|---------------------------------------------------------------|
G|----7---7---------7---7-------------7---7----------------------|
D|7---------7--6--6-------6-------5---------5--4-----------------|
A|---------------------------------------------------------------|
E|---------------------------------------------------------------|

-Verse 1-

  D            E                  G            D
E|2----------2-0--------------0-0-3----------3-2-----------2-2---|
B|3----------3-0--------------0-0-3----------3-3-----------3-3---|
G|2----------2-1--------------1-1-0----------0-2-----------2-2---|
D|0----------0-2--------------2-2-0----------0-0-----------0-0---|
A|-------------2--------------2-2-2----------2-------------------|
E|-------------0--------------0-0-3----------3-------------------|

  D            E                  G            A5    A#5
E|2----------2-0--------------0---3----------3-------------------|
B|3----------3-0--------------0---3----------3-------------------|
G|2----------2-1--------------1---0----------0-2-2-2-3---3-3-----|
D|0----------0-2--------------2---0----------0-2-2-2-3---3-3-----|
A|-------------2--------------2---2----------2-0-0-0-1---1-1-----|
E|-------------0--------------0---3----------3-------------------|

-Chorus-

  Bm           F#                 G5            G
E|2---2--2-2-2-2-----2-2-2----------------------3----------------|
B|3---3--3-3-3-2-----2-2-2----------------------3----------------|
G|4---4--4-4-4-3-----3-3-3----------------------0----------------|
D|4---4--4-4-4-4-----4-4-4--------5---5---5-5-5-0----------------|
A|2---2--2-2-2-4-----4-4-4--------5---5---5-5-5-2----------------|
E|2---2--2-2-2-2-----2-2-2--------3---3---3-3-3-3----------------|

  D            E                  A#    C          Repeat second line of intro
E|-------------------------------------------------|
B|-------------------------------------------------|
G|7---7--7-7-7--------------------3-3-3-5---5-5----|
D|7---7--7-7-7-2---2-2-2---2-2-2--3-3-3-5---5-5----|
A|5---5--5-5-5-2---2-2-2---2-2-2--1-1-1-3---3-3----|
E|-------------0---0-0-0---0-0-0-------------------|

-Verse 2-

  D            E                  G            D
E|2----------2-0--------------0-0-3----------3-2-----------2-2---|
B|3----------3-0--------------0-0-3----------3-3-----------3-3---|
G|2----------2-1--------------1-1-0----------0-2-----------2-2---|
D|0----------0-2--------------2-2-0----------0-0-----------0-0---|
A|-------------2--------------2-2-2----------2-------------------|
E|-------------0--------------0-0-3----------3-------------------|

  D            E                  G            A5    A#5
E|2----------2-0--------------0---3----------3-------------------|
B|3----------3-0--------------0---3----------3-------------------|
G|2----------2-1--------------1---0----------0-2-2-2-3---3-3-----|
D|0----------0-2--------------2---0----------0-2-2-2-3---3-3-----|
A|-------------2--------------2---2----------2-0-0-0-1---1-1-----|
E|-------------0--------------0---3----------3-------------------|

-Chorus-

  Bm           F#                 G5            G
E|2---2--2-2-2-2-----2-2-2----------------------3----------------|
B|3---3--3-3-3-2-----2-2-2----------------------3----------------|
G|4---4--4-4-4-3-----3-3-3----------------------0----------------|
D|4---4--4-4-4-4-----4-4-4--------5---5---5-5-5-0----------------|
A|2---2--2-2-2-4-----4-4-4--------5---5---5-5-5-2----------------|
E|2---2--2-2-2-2-----2-2-2--------3---3---3-3-3-3----------------|

  D            E                  A#    C
E|-------------------------------------------------|
B|-------------------------------------------------|
G|7---7--7-7-7--------------------3-3-3-5---5-5----|
D|7---7--7-7-7-2---2-2-2---2-2-2--3-3-3-5---5-5----|
A|5---5--5-5-5-2---2-2-2---2-2-2--1-1-1-3---3-3----|
E|-------------0---0-0-0---0-0-0-------------------|

-Bridge-

  Bm           F#                 G             D 
E|---------------------------------------------------------------|
B|---------------------------------------------------------------|
G|4---4--4-4-4----------------------------------7---7-7-7--7-7---|
D|4---4--4-4-4-4-----4-4-4--4-4-4-5---5---5-5-5-7---7-7-7--7-7---|
A|2---2--2-2-2-4-----4-4-4--4-4-4-5---5---5-5-5-5---5-5-5--5-5---|
E|-------------2-----2-2-2--2-2-2-3---3---3-3-3------------------|

  A            F#                 B       A       G 
E|---------------------------------------------------------------|
B|---------------------------------------------------------------|
G|--------------------------------4-4-4---2---2------------------|
D|7---7--7-7-7-4-----4-4-4--4-4-4-4-4-4---2---2---5---5-5-5------|
A|7---7--7-7-7-4-----4-4-4--4-4-4-2-2-2---0---0---5---5-5-5------|
E|5---5--5-5-5-2-----2-2-2--2-2-2-----------------3---3-3-3------|

  D                               A            F# 
E|---------------------------------------------------------------|
B|---------------------------------------------------------------|
G|7---7---7-7-7-7---7-7-7---7-7-7--------------------------------|
D|7---7---7-7-7-7---7-7-7---7-7-7-7---7--7-7-7-4---4-4-4---4-4-4-|
A|5---5---5-5-5-5---5-5-5---5-5-5-7---7--7-7-7-4---4-4-4---4-4-4-|
E|--------------------------------5---5--5-5-5-2---2-2-2---2-2-2-|

  G5            G
E|--------------3---3-3-3-3-3-3---|
B|--------------3---3-3-3-3-3-3---|
G|--------------0---0-0-0-0-0-0---|
D|5---5---5-5-5-0---0-0-0-0-0-0-5\|
A|5---5---5-5-5-2---2-2-2-2-2-2---|
E|3---3---3-3-3-3---3-3-3-3-3-3---|

-Solo-

  D              E                G             D
E|---------------------------------------------------------------|
B|---------------------------------------------------------------|
G|---------------------------------------------------------------|
D|-----------7---6----------------5---5---5h7-5-4-----4----------|
A|5---5---/9----------------------------------------5------------|
E|------------------------------------------------------5-5-5-5--|

  D               E               G              D               V The 3rd verse starts right here
E|-------------------------------------------------------------------|
B|-------------------------------------------------------------------|
G|-------------------------------7-9b10-9b10--7---7---7-7-7-7--------|
D|--------------------7------7-9----------------9--------------------|
A|5---5-7-7b9r7-5-7h9----7-9----------------------------------5-7b8r7|
E|--5----------------------------------------------------------------|

-Verse 3-

  D             E                 G               D
E|2-------------0---0-0---0-0-0-0-3---3-3---3-3-3-2---2-2--2-2-2-|
B|3-------------0---0-0---0-0-0-0-3---3-3---3-3-3-3---3-3--3-3-3-|
G|2-------------1---1-1---1-1-1-1-0---0-0---0-0-0-2---2-2--2-2-2-|
D|0-------------2---2-2---2-2-2-2-0---0-0---0-0-0-0---0-0--0-0-0-|
A|--------------2---2-2---2-2-2-2-2---2-2---2-2-2----------------|
E|--------------0---0-0---0-0-0-0-3---3-3---3-3-3----------------|

  D              E                G          A5      A#5
E|2---2-2--2-2-2-0---0-0-0--0-0-0-3---3--3-3---------------------|
B|3---3-3--3-3-3-0---0-0-0--0-0-0-3---3--3-3---------------------|
G|2---2-2--2-2-2-1---1-1-1--1-1-1-0---0--0-0-2---2-2-3---3-3-----|
D|0---0-0--0-0-0-2---2-2-2--2-2-2-0---0--0-0-2---2-2-3---3-3-----|
A|---------------2---2-2-2--2-2-2-2---2--2-2-0---0-0-1---1-1-----|
E|---------------0---0-0-0--0-0-0-3---3--3-3---------------------|

-Chorus-

  Bm           F#                 G5            G
E|2---2--2-2-2-2-----2-2-2----------------------3----------------|
B|3---3--3-3-3-2-----2-2-2----------------------3----------------|
G|4---4--4-4-4-3-----3-3-3----------------------0----------------|
D|4---4--4-4-4-4-----4-4-4--------5---5---5-5-5-0----------------|
A|2---2--2-2-2-4-----4-4-4--------5---5---5-5-5-2----------------|
E|2---2--2-2-2-2-----2-2-2--------3---3---3-3-3-3----------------|

  D            E                  A#    C 
E|-------------------------------------------------|
B|-------------------------------------------------|
G|7---7--7-7-7--------------------3-3-3-5---5-5----|
D|7---7--7-7-7-2---2-2-2---2-2-2--3-3-3-5---5-5----|
A|5---5--5-5-5-2---2-2-2---2-2-2--1-1-1-3---3-3----|
E|-------------0---0-0-0---0-0-0-------------------|

-If there are two guitars, have the rhythm player play the first bar of the chorus,
and the lead guitarist play the first bar of the intro. If there's one guitar, just play this:-

  D            E
E|--------------------------------|
B|--------------------------------|
G|----7---7---------7---7---------|
D|/7--------7--6--6-------6-------|
A|--------------------------------|
E|--------------------------------|

-Outro-

  F#5             C5              G
E|--------------------------------3---3---3---3---3---3---3---3---|
B|--------------------------------3---3---3---3---3---3---3---3---|
G|3-3-3-3-3-3-3-3-5-5-5-5-5-5-5-5-0---0---0---0---0---0---0---0---|
D|3-3-3-3-3-3-3-3-5-5-5-5-5-5-5-5-0---0---0---0---0---0---0---0---|
A|1-1-1-1-1-1-1-1-3-3-3-3-3-3-3-3-2---2---2---2---2---2---2---2---|
E|--------------------------------3---3---3---3---3---3---3---3---|

  D
E|2-------------------------------|
B|3-------------------------------|
G|2-------------------------------|
D|0-------------------------------|
A|--------------------------------|
E|--------------------------------|

So that's Emily, one of the most underrated songs from one of the most underrated bands.
If I missed anything or tabbed anything wrong, just e-mail me.
            

comments powered by Disqus
↑ Back to top | Fastball Tabs for Emily. Lyrics for acoustic guitar and electric guitar. Tablatures and chords are parodies/interpretations of the original songs. You may use it for private study, scholarship, research or language learning purposes only