» » »

Fastball, The Way Bass tabs (ver.1)

Artists:  A B C D E F G H I J K L M N O P Q R S T U V W X Y Z # 

The Way Bass tabs (ver.1)

Fastball Tabs
 Rating:
4.4/5 (7 votes)
The Way lessons Tabs too difficult? Try these video lessons and learn fast
                
This is the way my band and I play it.  If you disagree, please E-Mail me.
Each character represents 1 sixteenth note, since the rhythm stays the same
throughout the song, the notes are always played on:
x     x x   x
1 & 2 & 3 & 4 &
[verse 1]
G||----------------|----------------|----------------|----------------
D||----------------|----------------|--------4---4---|--------4---4---
A||--------4---4---|--------4---4---|2-----2---------|2-----2---------
E||2-----2---------|2-----2---------|----------------|----------------

G||----------------|----------------|----------------|----------------
D||--------6---6---|--------6---6---|----------------|----------------
A||4-----4---------|4-----4---------|--------4---4---|--------4---4---
E||----------------|----------------|2-----2---------|2-----2---------

G||----------------|----------------|----------------|----------------
D||----------------|----------------|--------4---4---|--------4---4---
A||--------4---4---|--------4---4---|2-----2---------|2-----2---------
E||2-----2---------|2-----2---------|----------------|----------------

G||----------------|----------------|----------------|----------------
D||----------------|--------6---6---|----------------|----------------
A||--------4---4---|4-----4---------|--------4---4---|--------4---4---
E||2-----2---------|----------------|2-----2---------|2-----2---------
[play verse 2 the same way as verse 1 with the bass volume turned way up]
[chorus]
G||----------------|----------------|----------------|----------------
D||----------------|2-----2-2---2---|----------------|----------------
A||0-----0-0---0---|----------------|----------------|4-----4-4---4---
E||----------------|----------------|2-----2-2---2---|----------------

G||----------------|----------------|----------------|----------------
D||0-----0-0---0---|----------------|2-----2-2---2---|2-----2-2---2---
A||----------------|0-----0-0---0---|----------------|----------------
E||----------------|----------------|----------------|----------------

G||----------------|----------------|----------------|----------------
D||----------------|2-----2-2---2---|----------------|----------------
A||0-----0-0---0---|----------------|----------------|4-----4-4---4---
E||----------------|----------------|2-----2-2---2---|----------------

G||----------------|----------------|----------------|----------------
D||0-----0-0---0---|----------------|2-----2-2---2---|----------------
A||----------------|0-----0-0---0---|----------------|4-----4-4---4---
E||----------------|----------------|----------------|----------------
[play verse 3 the same way as verse 2]
[play the chorus]
[guitar solo]
[play the chorus]
[guitar solo]


This is the way my band and I play it.  If you disagree, please E-Mail me 
            
Submit corrections

comments powered by Disqus
↑ Back to top | Fastball Bass for The Way. Lyrics for acoustic guitar and electric guitar. Tablatures and chords are parodies/interpretations of the original songs. You may use it for private study, scholarship, research or language learning purposes only