>
 >
Porzellan

Porzellan Guitar Tabs

Farin Urlaub Racing Team - Porzellan chords, tabs, tablatures, lyrics

Guitar lessons | Add/correct | Request | Top 50 tabs Artists:  A B C D E F G H I J K L M N O P Q R S T U V W X Y Z 0-9

Porzellan Guitar Tabs – Farin Urlaub Racing Team

CD, Sheet music, Poster

Do you like Porzellan? Share with your friends now
ChordsTabsUkulele
=========
(M/T:Urlaub)

Anm.: Gitarre einen Halbton tiefer stimmen! 

   Dj7 D   H2  h   G?  G   e   A   A4  A7
1:-2-|-2-|-2-|-2-|-3-|-3-|-0-|-0-|-0-|-3-|
2:-2-|-3-|-2-|-3-|-2-|-3-|-0-|-2-|-3-|-2-|
3:-2-|-2-|-4-|-4-|-0-|-0-|-0-|-2-|-2-|-2-|
4:-0-|-0-|-4-|-4-|-0-|-0-|-2-|-2-|-2-|-2-|
5:---|---|-2-|-2-|-2-|-2-|-2-|-0-|-0-|-0-|
6:---|---|---|---|-3-|-3-|-0-|---|---|---|


Intro: (2mal)
   Dj7           D               H2            h
1:-2---2-------2-2-------2---2-|-2---2-------2-2------22--22-|
2:-2---2-------2-3-------3---3-|-2---2-------2-3------33--33-|
3:-2---2-------2-2-------2---2-|-4---4-------4-4------44--44-|
4:-0---0-------0-0-------0---0-|-4---4-------4-4------44--44-|
5:-----------------------------|-----------------------------|
6:-----------------------------|-----------------------------|
 :                             |                             |
1:-----------------------------|-----------------------------|
2:-2---2---2---2^3---3---3---3-|-2---2---2---2^3---3---3---3-|
3:-----------------------------|-----------------------------|
4:-----------------------------|-----------------------------|
5:-----------------------------|-----------------------------|
6:-----------------------------|-----------------------------|

   G?            G               A          A4 A7
1:-2---2-------2-2------22--22-|-0---0---0---0-3------|
2:-2---2-------2-3------33--33-|-2---2---3---3-2------|
3:-2---2-------2-2------22--22-|-2---2---2---2-2------|
4:-0---0-------0-0------00--00-|-2---2---2---2-2------|
5:-----------------------------|----------------------|
6:-----------------------------|----------------------|
 :                             |                      |
1:-----------------------------|----------------------|
2:-2---2---2---2^3---3---3---3-|-2---2---3---3-5~~~~ -|
3:-----------------------------|----------------------|
4:-----------------------------|----------------------|
5:-----------------------------|----------------------|
6:-----------------------------|----------------------|


1.Strophe: (ab der 3. Zeile mit Begleitung)
                    D      h
Das Glück ist immer da, wo du nicht bist.
                D        h
Du willst immer das, was du nicht kriegst,
          G                        e
und du beklagst dich, es ist nicht fair.

              D        h
Schön ist nur das, was du verpasst.
                  D        h
Du brauchst irgendwas, was du nicht hast.
              G                        e
Du bist nie zufrieden, du willst immer mehr.


Begleitung:
  zu "D":                       zu "h":
1:---------------0-------------|---------------0-------------|
2:---------3---------3-------3-|---------3---------3-------3-|
3:-----2-------2---------2-----|-------------4---------2-----|
4:-0---------------------------|-----4-----------------------|
5:-----------------------------|-2---------------------------|
6:-----------------------------|-----------------------------|

  zu "G":                       zu "e"
1:---------------0-------------|---------------0-------------|
2:---------3---------3-------3-|---------3---------3-------3-|
3:-----0-------0---------0-----|-----0-------0---------0-----|
4:-----------------------------|-----------------------------|
5:-----------------------------|-----------------------------|
6:-3---------------------------|-0---------------------------|


                  Dj7  D                    H2   h
Du wärst gern wie sie,    du wärst gern wie er.
                     Dj7     D                   H2   h
Du wärst gern jemand anders,    Hauptsache irgendwer.
              G?       G      A           A4   A7
Glück gibt es überall,    vielleicht auch hier-
            Dj7 (wie Intro)...
Es liegt an dir.



2.Strophe (mit Begleitung)
              D               h
Du siehst die Andern und dich packt die Wut:
                   D           h
Warum geht es dir schlecht und denen gut?
               G                      e
Du fühlst dich einsam, du fühlst dich leer.
                      D          h
Du gehst an so vielen Dingen achtlos vorbei.
                     D          h
Für immer Sklave der Angst, nie wirklich frei.
             G          e
Mach dir das Leben doch nicht so schwer.



Refrain:
                  Dj7  D                    H2  h
Du wärst gern wie sie,    du wärst gern wie er.
                        Dj7     D                   H2   h
Du wärst so gern jemand anders,    Hauptsache irgendwer.
              G?     G       A          A4    A7
Glück gibt es überall,    bestimmt auch hier.
            Dj7 (wie Intro)...
Es liegt an dir.



                         D       h
Vielleicht wirst du's begreifen, irgendwann,
                   D                 h
und wenn's so weit ist, bitte denk daran:
              G                            e
Glück ist zerbrechlich, fass es vorsichtig an,
          Dj7 (wie Intro)...
wie Porzellan.



Refrain:
                  Dj7  D                    H2  h
Du wärst gern wie sie,    du wärst gern wie er.
                        Dj7     D                   H2   h
Du wärst so gern jemand anders,    Hauptsache irgendwer.
              G?       G     A          A4    A7  G  D
Glück gibt es überall,    bestimmt auch hier...





Comments


Popular Farin Urlaub Racing Team tabs & chords
Lieber Staat Chords
Phnomenal Egal Chords
Worte Fehlen 1 Chords
Zu Heiss Chords
Frauenfluesterer Tabs
Ok Tabs
Ok 1 Tabs
Unter Wasser Intro Tabs
Immer Noch Ukulele
Kein Zuruck Ukulele


Song lyrics



↑ Back to top | Tablatures and chords are parodies/interpretations of the original songs. You may use it for private study, scholarship, research or language learning purposes only
© 2014 AZChords.com Contact us | Privacy policy | DMCA | Add/correct tabs | Request tabs | Top 50 tabs