» » »

Porzellan Chords (ver.1)

Artists:  A B C D E F G H I J K L M N O P Q R S T U V W X Y Z # 

Porzellan Chords (ver.1)

Farin Urlaub Racing Team
Rating:
0/5 (0 votes)

Hard to play? Try these video lessons and learn fast.
                -------------------------------------------------------------------------------
                            Farin Urlaub - Porzellan
-------------------------------------------------------------------------------

Tuning: EADGBE

This might be quite off the original, but should be a very simple way to play the song :)


INTRO
   C                  Am                  C                  Am
---x-x-x-x-x-x-x-x-x--x-x-x-x-x-x-x-x-x---x-x-x-x-x-x-x-x-x--x-x-x-x-x-x-x-x-x---|
---0-0-0-0-0-1-1-1-1--0-0-0-0-0-1-1-1-1---0-0-0-0-0-1-1-1-1--0-0-0-0-0-1-1-1-1---|
---0-0-0-0-0-0-0-0-0--2-2-2-2-2-2-2-2-2---0-0-0-0-0-0-0-0-0--2-2-2-2-2-2-2-2-2---|
---2-2-2-2-2-2-2-2-2--2-2-2-2-2-2-2-2-2---2-2-2-2-2-2-2-2-2--2-2-2-2-2-2-2-2-2---|
---3-3-3-3-3-3-3-3-3--0-0-0-0-0-0-0-0-0---3-3-3-3-3-3-3-3-3--0-0-0-0-0-0-0-0-0---|
---x-x-x-x-x-x-x-x-x--x-x-x-x-x-x-x-x-x---x-x-x-x-x-x-x-x-x--x-x-x-x-x-x-x-x-x---|

   F                  G
---x-x-x-x-x-x-x-x-x--x-x-x-x-x-x-x-x-x--x---|
---0-0-0-0-0-1-1-1-1--0-0-0-0-0-1-1-1-1--3---|
---2-2-2-2-2-2-2-2-2--0-0-0-0-0-0-0-0-0--0---|
---3-3-3-3-3-3-3-3-3--0-0-0-0-0-0-0-0-0--0---|
---x-x-x-x-x-x-x-x-x--2-2-2-2-2-2-2-2-2--2---|
---x-x-x-x-x-x-x-x-x--3-3-3-3-3-3-3-3-3--3---|

                    C      Am
Das Glück ist immer da, wo du nicht bist
                C        Am
Du willst immer das, was du nicht kriegst
         F                         G
Und du beklagst dich: Es ist nicht fair


              C        Am
Schön ist nur das, was du verpasst
                  C        Am
Du brauchst irgendwas, was du nicht hast
              F                        G
Du bist nie zufrieden, du willst immer mehr


                  C                      Am
Du wärst gern wie sie, du wärst gern wie er
                     C                         Am
Du wärst gern jemand anders, hauptsache, irgendwer
              F            G
Glück gibt es überall, vielleicht auch hier -
            INTRO (first line only)
Es liegt an dir...


              C                Am
Du siehst die anderen und dich packt die Wut:
                  C            Am
Warum geht es dir schlecht und denen gut?
               F                      G
Du fühlst dich einsam, du fühlst dich leer

                      C      Am
Du gehst an so vielen Dingen achtlos vorbei
                      C         Am
Für immer Sklave der Angst, nie wirklich frei
             F                   G
Mach dir das Leben doch nicht so schwer


                  C                      Am
Du wärst gern wie sie, du wärst gern wie er
                        C                         Am
Du wärst so gern jemand anders, hauptsache, irgendwer
              F          G
Glück gibt es überall, bestimmt auch hier -
            INTRO
Es liegt an dir...

                      C           Am
Vielleicht wirst du's begreifen - irgendwann
                  C               Am
Und wenns so weit ist, bitte denk daran
             F                             G
Glück ist zerbrechlich, fass es vorsichtig an -
           INTRO
Wie Porzellan!


                  C                      Am
Du wärst gern wie sie, du wärst gern wie er
                        C                         Am
Du wärst so gern jemand anders, hauptsache, irgendwer
              F            G                         (C)
Glück gibt es überall, bestimmt auch hier
            
Hard to play? Try these video lessons and learn fast. | Correct




comments powered by Disqus
↑ Back to top | Tablatures and chords are parodies/interpretations of the original songs. You may use it for private study, scholarship, research or language learning purposes only