» » »

Farin Urlaub Racing Team, Atem Tabs (ver.2)

Artists:  A B C D E F G H I J K L M N O P Q R S T U V W X Y Z # 

Atem Tabs (ver.2)

Farin Urlaub Racing Team Tabs
 Rating:
4/5 (4 votes)
Atem lessons Tabs too difficult? Try these video lessons and learn fast
1
                -------------------------------------------------------------------------------
-------------------------------------------------------------------------------

Tuning: b

Intro
e|----------------|
B|----------------|
G|-2-2-2-2-2-2-2-2|
D|----------------|
A|0-0-0-0-0-0-0-0-|
E|----------------|

A-Teil
  A                               f#m             E
e|--------------------------------------------------------|
B|--------------------------------------------------------|
G|-2-2-2-2-2-2-2-2-2-2-2-2-2-2-2-2-2-2-2-2-2-2-2-2-4-4-4-4|
D|--------------------------------------------------------|
A|0-0-0-0-0-0-0-0-0-0-0-0-0-0-0-0-------------------------|
E|--------------------------------2-2-2-2-2-2-2-2-0-0-0-0-|

          hm              D               F#m     E
e|--------------------------------------------------------|
B|--------------------------------------------------------|
G|-4-4-4-4-4-4-4-4-4-4-4-4-2-2-2-2-2-2-2-2-2-2-2-2-4-4-4-4|
D|------------------------0-0-0-0-0-0-0-0-----------------|
A|--------2-2-2-2-2-2-2-2---------------------------------|
E|0-0-0-0---------------------------------2-2-2-2-0-0-0-0-|

B-Teil
  A       A/G#    F#m     F       D       G       A
e|--------------------------------------------------------|
B|--------------------------------------------------------|
G|-2-2-2-2-2-2-2-2-2-2-2-2-2-2-2-2-2-2-2-2-0-0-0-0-2-2-2-2|
D|--------------------------------0-0-0-0-----------------|
A|0-0-0-0-----------------------------------------0-0-0-0-|
E|--------4-4-4-4-2-2-2-2-1-1-1-1---------3-3-3-3---------|
  A/G#    F#m     F       D       G       A
e|--------------------------------------------------------|
B|--------------------------------------------------------|
G|-2-2-2-2-2-2-2-2-2-2-2-2-2-2-2-2-0-0-0-0-2-2-2-2-2-2-2-2|
D|-----------------------0-0-0-0--------------------------|
A|----------------------------------------0-0-0-0-0-0-0-0-|
E|4-4-4-4-2-2-2-2-1-1-1-1---------3-3-3-3-----------------|

A-Teil:
A                                                             f#m
  Wer hat in meinen Kopf geschaut und dich aus meinem Traum gebaut
E                           hm                           D
  deine Haut ist kuehl und weich, deine Augen sternen gleich
                                f#m               E                   A
und sie schaun mich spoettisch an, weil ich nicht Suessholz raspeln kann

B-Teil:
A          A/G#               f#m                  F               D
  Manchmal moecht ich dich verfuehrn, dich nur mit meinem Blick beruehrn
     G
weil du so zart bist
A         A/G#            f#m              F                D
  und was ich am liebsten spuer, bevor ich mich im Traum verlier
     G              A
ist, wie du atmest

A-Teil:
A                                                     f#m
  Ohne dich bin ich nicht viel - wie ein Besen ohne Stiel
E                        hm                       D
  wie ein Fenster ohne Glas, Wie Mallorca ohne Bars
                   f#m            E                A
wie ein Vogel ohne Nest und darum halte ich dich fest

B-Teil:
A              A/G#           f#m                F                      D
  Ich fuehle mich von dir beschuetzt, du bist so schoen, wie du hier sitzt
     G
und auf mich wartest
A                A/G#            f#m                  F                 D
  du musst nicht deine Liebe schwoern - ich wuerd nur gern fuer immer hoern
G              A
wie du atmest

SOLO: A E f#m dm   A E f#m D   A f#m E   hm D f#m E

B-Teil:
A          A/G#              f#m                   F              D
Ich stell mir nie vor, wie es waer, gaebs dich irgendwann nicht mehr
     G
weil das zu hart ist
A             A/G#               f#m                F                  D
  doch sollte ich dich einst verliern, werd ich in meinen traeumen spuern
G              A
wie du atmest
            
Submit corrections

comments powered by Disqus
↑ Back to top | Farin Urlaub Racing Team Tabs for Atem. Lyrics for acoustic guitar and electric guitar. 1 Tablatures and chords are parodies/interpretations of the original songs. You may use it for private study, scholarship, research or language learning purposes only