» » »

Far, Water And Solutions Tabs (ver.2)

Artists:  A B C D E F G H I J K L M N O P Q R S T U V W X Y Z # 

Water And Solutions Tabs (ver.2)

Far Tabs
 Rating:
4/5 (4 votes)
Water And Solutions lessons Tabs too difficult? Try these video lessons and learn fast
1
                Far - Water and Solutions 
	By J. James Ingles.




    Intro&Verse X8       

 e :--------------------------------------|
 B :--------------------------------------|
 G :---14-14-13-13-14-14-13-77777777------|
 D :--------------------------------------|
 A :---12-12-11-11-12-12-11-55555555------| X8
 D :--------------------------------------|
    Chorus X3   
 e :-----------------------------|
 B :-----------------------------|
 G :---11----6------7------------|
 D :---9-----4------7------------|
 A :---9-X4--4-X5---5--X2--------|X3
 D :---9-----4------0------------|
 
    Verse X4
    
    ChorusX4(on third rotation use these chords)                   
 e :----------------------------|
 B :----------------------------|
 G :--11----6-----13-----14-----|
 D :--9-----4-----11-----12-----|
 A :--9-x4--4-x5--11-x6--12-----|
 D :--9-----4-----11-----12-----|

  Verse riff x 4

  Bridge x 8
 e :-------------------------------|
 B :-------------------------------|
 G :----6-----7----9---------------|
 D :----4-----5----7---------------|
 A :----4-x8--5-4--7-x5------------|
 D :----4-----5----7---------------|
 

  ChorusX5(on fourth rotation use these chords)                   
 e :----------------------------|
 B :----------------------------|
 G :--11----6-----13-----14-----|
 D :--9-----4-----11-----12-----|
 A :--9-x4--4-x5--11-x6--12-----|
 D :--9-----4-----11-----12-----|
   


Chords-
      A    G#   D     B    F#   D   C#   D    G   A
 e :------------------------------------------------------------------------
 B :------------------------------------------------------------------------
 G :--14---13---7-----11---6----7---13---14---7---9-------------------------
 D :------------------9----4----7---11---12---5---7-------------------------
 A :--12---11---5-----9----4----5---11---12---5---7-------------------------
 D :------------------9----4--------11---12---5---7-------------------------
            
Submit corrections

comments powered by Disqus
↑ Back to top | Far Tabs for Water And Solutions. Lyrics for acoustic guitar and electric guitar. 1 Tablatures and chords are parodies/interpretations of the original songs. You may use it for private study, scholarship, research or language learning purposes only