» » »

Far, Mother Mary Bass tabs (ver.1)

Artists:  A B C D E F G H I J K L M N O P Q R S T U V W X Y Z # 

Mother Mary Bass tabs (ver.1)

Far Tabs
 Rating:
4/5 (4 votes)
Mother Mary lessons Tabs too difficult? Try these video lessons and learn fast
                Far-Mother Mary

Verse 1 (play about 12 times)

G-------------------------------------------------------

D-------------------------------------------------------

A-------------------------------------------------------

E--5-5-5-1-1-1-1----------------------------------------

Chorus (play 2 times)

G-------------------------------------------------------

D-------------------------------------------------------

A--3-3-3-3-5-5-5-5-3-3-3-3------------------------------

E--------------------------3-3-3-3----------------------

Verse2 (play about 20 times)

G-------------------------------------------------------

D-------------------------------------------------------

A-------------------------------------------------------

E--5-5-5-1-1-1-1----------------------------------------
(pause then play verse again a few times then go straight into chorus)

Chorus2 (play about 2 times)

G-------------------------------------------------------

D-------------------------------------------------------

A--3-3-3-3-5-5-5-5-3-3-3-3------------------------------

E--------------------------3-3-3-3----------------------

Prelude to end chorus (play about 2 times)

G--------------------------------------------------------

D--------------------------------------------------------

A--7-7-7-7-8-8-8-8-10-10-10-10-10-10-10-10---------------

E--------------------------------------------------------

Ending Chorus (play about 3 times)

G-------------------------------------------------------

D-------------------------------------------------------

A--3-3-3-3-5-5-5-5-3-3-3-3------------------------------

E--------------------------3-3-3-3----------------------
            
Submit corrections

comments powered by Disqus
↑ Back to top | Far Bass for Mother Mary. Lyrics for acoustic guitar and electric guitar. Tablatures and chords are parodies/interpretations of the original songs. You may use it for private study, scholarship, research or language learning purposes only