» » »

Far, Mother Mary Tabs (ver.1)

Artists:  A B C D E F G H I J K L M N O P Q R S T U V W X Y Z # 

Mother Mary Tabs (ver.1)

Far Tabs
 Rating:
4/5 (4 votes)
Mother Mary lessons Tabs too difficult? Try these video lessons and learn fast
1
                -------------------------------------------------------------------------------
-------------------------------------------------------------------------------

Tuning: DADGBe



INTRO:

Guitar 1:
e|---------------x-x-------------|
B|---------------x-x-------------|
G|-2-2-2---------x-x-2-2---------|
D|-2-2-2-3-3-3-3-x-x-2-2-3-3-3-3-| X2
A|-0-0-0-3-3-3-3-x-x-0-0-3-3-3-3-|
D|-------3-3-3-3-x-x-----3-3-3-3-| 
                                 


VERSE 1:

Guitar 1:
e|---------------x-x-------------|
B|---------------x-x-------------|
G|-2-2-2---------x-x-2-2---------|
D|-2-2-2-3-3-3-3-x-x-2-2-3-3-3-3-| X8
A|-0-0-0-3-3-3-3-x-x-0-0-3-3-3-3-|
D|-------3-3-3-3-x-x-----3-3-3-3-|

  Like Elvis
  Like everyone
  We all die
  We all live on
  In photos
  And paperbacks
  If we're lucky
  We're coming back



CHORUS:

Guitar 1+2:
e|----------------------------------------------------------------|
B|----------------------------------------------------------------|
G|-5--5-5-5-5-5-5--7--7-7-7-7-7-7--5--5-5-5-5-5-5-----------------|
D|-5--5-5-5-5-5-5--7--7-7-7-7-7-7--5--5-5-5-5-5-5--5--5-5-5-5-5-5-| X2
A|-3--3-3-3-3-3-3--5--5-5-5-5-5-5--3--3-3-3-3-3-3--5--5-5-5-5-5-5-|
E|-------------------------------------------------5--5-5-5-5-5-5-|

  Mother Mary over, over
  Mother Mary over, over me



MAIN RIFF:

Guitar 1+2:
e|---------------x-x-------------|
B|---------------x-x-------------|
G|-2-2-2---------x-x-2-2---------|
D|-2-2-2-3-3-3-3-x-x-2-2-3-3-3-3-| X2
A|-0-0-0-3-3-3-3-x-x-0-0-3-3-3-3-|
D|-------3-3-3-3-x-x-----3-3-3-3-| 



VERSE 2 (Part 1):

Guitar 1:
e|---------------x-x-------------|
B|---------------x-x-------------|
G|-2-2-2---------x-x-2-2---------|
D|-2-2-2-3-3-3-3-x-x-2-2-3-3-3-3-| X4
A|-0-0-0-3-3-3-3-x-x-0-0-3-3-3-3-|
D|-------3-3-3-3-x-x-----3-3-3-3-|

  We notice
  We understand
  We throw out
  All we can


(Part 2):

Guitar 1:
e|---------------x-x-------------|
B|---------------x-x-------------|
G|-2-2-2---------x-x-2-2---------|
D|-2-2-2-3-3-3-3-x-x-2-2-3-3-3-3-| X2
A|-0-0-0-3-3-3-3-x-x-0-0-3-3-3-3-|
D|-------3-3-3-3-x-x-----3-3-3-3-|

Guitar 2:
e|-------------------------------|
B|-------------------------------|
G|-2-2-2-------------------------|
D|-2-2-2-3-3-3-3-----------------| X2
A|-0-0-0-3-3-3-3-----------------|
E|-------3-3-3-3-----------------|

  We're on the market
  We're up on racks


(Part 3):

Guitar 1:
e|---------------x-x-------------|
B|---------------x-x-------------|
G|-2-2-2---------x-x-2-2---------|
D|-2-2-2-3-3-3-3-x-x-2-2-3-3-3-3-| X2
A|-0-0-0-3-3-3-3-x-x-0-0-3-3-3-3-|
D|-------3-3-3-3-x-x-----3-3-3-3-|

  If we're really lucky 
  We're coming back



CHORUS:

Guitar 1+2:
e|----------------------------------------------------------------|
B|----------------------------------------------------------------|
G|-5--5-5-5-5-5-5--7--7-7-7-7-7-7--5--5-5-5-5-5-5-----------------|
D|-5--5-5-5-5-5-5--7--7-7-7-7-7-7--5--5-5-5-5-5-5--5--5-5-5-5-5-5-| X2
A|-3--3-3-3-3-3-3--5--5-5-5-5-5-5--3--3-3-3-3-3-3--5--5-5-5-5-5-5-|
E|-------------------------------------------------5--5-5-5-5-5-5-|

  Mother Mary over, over
  Mother Mary over me



VERSE 3 (Part 1):

Guitar 1:                               Guitar 2(Plays once the first time)
e|---------------x-x-------------|      |---------------|
B|---------------x-x-------------|      |---------------|
G|-2-2-2---------x-x-2-2---------|      |-2-2-2---------|
D|-2-2-2-3-3-3-3-x-x-2-2-3-3-3-3-| X6   |-2-2-2-3-3-3-3-|
A|-0-0-0-3-3-3-3-x-x-0-0-3-3-3-3-|      |-0-0-0-3-3-3-3-|
D|-------3-3-3-3-x-x-----3-3-3-3-|      |-------3-3-3-3-|

  Like Elvis
  Like everyone
  We all die
  We all live on
  In photos
  And paperbacks


(Part 2):

Guitar 1+2:
e|---------------|
B|---------------|
G|-2-2-2---------|
D|-2-2-2-3-3-3-3-| X2
A|-0-0-0-3-3-3-3-|
E|-------3-3-3-3-|

  If we're lucky
  We're coming back



BRIDGE:

Guitar 1+2:
e|--------------------------------------------------------------------|
B|--------------------------------------------------------------------|
G|--------------------------------------------------------------------|
D|-2-2-2-2-2-2-2-2--3-3-3-3-3-3-3-3--5-5-5-5-5-5-5-5--5-5-5-5-5-5-5-5-| X2
A|-2-2-2-2-2-2-2-2--3-3-3-3-3-3-3-3--5-5-5-5-5-5-5-5--5-5-5-5-5-5-5-5-|
E|-2-2-2-2-2-2-2-2--3-3-3-3-3-3-3-3--5-5-5-5-5-5-5-5--5-5-5-5-5-5-5-5-|

  I would never decide
  I would never decide



CHORUS:

Guitar 1+2:
e|----------------------------------------------------------------|
B|----------------------------------------------------------------|
G|-5--5-5-5-5-5-5--7--7-7-7-7-7-7--5--5-5-5-5-5-5-----------------|
D|-5--5-5-5-5-5-5--7--7-7-7-7-7-7--5--5-5-5-5-5-5--5--5-5-5-5-5-5-| X3
A|-3--3-3-3-3-3-3--5--5-5-5-5-5-5--3--3-3-3-3-3-3--5--5-5-5-5-5-5-|
E|-------------------------------------------------5--5-5-5-5-5-5-|
  
  Mother Mary over, over
  Mother Mary over, over
  Mother Mary over, over


Guitar 1:
e|----------------------------------------------------------------|
B|----------------------------------------------------------------|
G|-5--5-5-5-5-5-5--7--7-7-7-7-7-7--5--5-5-5-5-5-5-----------------|
D|-5--5-5-5-5-5-5--7--7-7-7-7-7-7--5--5-5-5-5-5-5--5--5-5-5-5-5-5-| X1
A|-3--3-3-3-3-3-3--5--5-5-5-5-5-5--3--3-3-3-3-3-3--5--5-5-5-5-5-5-|
E|-------------------------------------------------5--5-5-5-5-5-5-|

  Mother Mary over, over me


| /  slide up
| \  slide down
| h  hammer-on
| p  pull-off
| ~  vibrato
| +  harmonic
| x  Mute note
===============================================================================
            
Submit corrections

comments powered by Disqus
↑ Back to top | Far Tabs for Mother Mary. Lyrics for acoustic guitar and electric guitar. 1 Tablatures and chords are parodies/interpretations of the original songs. You may use it for private study, scholarship, research or language learning purposes only