» » »

Girl Bass tabs (ver.1)

Artists:  A B C D E F G H I J K L M N O P Q R S T U V W X Y Z # 

Girl Bass tabs (ver.1)

Far
Rating:
0/5 (0 votes)

Hard to play? Try these video lessons and learn fast.
                G|-----------------------------------------------------------------------------|
D|-----------------------------------------------------------------------------|
A|------3-2--------------3-2------------3---------------3----------------------|
E|--5--5---3-5--1-1-5--5----3-5--1-1-5--5-5-3-5-1-1-5--5--5-3-5-1-1------------|

(Things you never said..)
G|-----------------------------------------------------------------------------|
D|-----------------------------------------------------------------------------|
A|------3----------------3-----------------------------------------------------|
E|--5--5-5-3-5--1-1-5--5--5-3-5--1-1-------------------------------------------|
(Repeat)

(All for love...)
G|-----------------------------------------------------------------------------|
D|--0---3-2-----0--3---------0---3-2-----0--3----------------------------------|
A|----------3---------0--3-----------3---------0--3--1-------------------------|
E|-----------------------------------------------------------------------------|

G|-----------------------------------------------------------------------------|
D|-----------------------------------------------------------------------------|
A|------3-2--------------3-2------------3---------------3----------------------|
E|--5--5---3-5--1-1-5--5----3-5--1-1-5--5-5-3-5-1-1-5--5--5-3-5-1-1------------|
(Repeat)

G|-----------------------------------------------------------------------------|
D|-----------------------------------------------------------------------------|
A|------2----------------2----------------2------------------------------------|
E|--4--4-4-2-4--0-0-4--4--4-2-4--0-0-4--4-4-2-4--0-0-4-------------------------|
            
Hard to play? Try these video lessons and learn fast. | Correct




comments powered by Disqus
↑ Back to top | Tablatures and chords are parodies/interpretations of the original songs. You may use it for private study, scholarship, research or language learning purposes only