» » »

Girl Tabs (ver.1)

Artists:  A B C D E F G H I J K L M N O P Q R S T U V W X Y Z # 

Girl Tabs (ver.1)

Far
Rating:
0/5 (0 votes)

Hard to play? Try these video lessons and learn fast.
                far-girl
two guitars...normal tuning on guitar 1, 
drop D tuning on guitar 2


guitar 1
|---------------------------|
|------8-----8--8--7--------|
|---9-----9-----------10----|
|---------------------------|
|---------------------------|
|---------------------------|


guitar 2
|----------------------------------|
|---------8------------------------|
|-----------9----------------------|
|----9--------9----9----9-----9----|
|--7---7--------7------------------|
|--------------------0-----0-------|


guitar 1
|--3--------0-0-0-0-0--0------------3--------0------0-----|
|--0---1----1-1-1-1-1----1----------0----1---1---0--3-----|
|--0---0----0-0-0-0-0------0--------0----0---0------0-----|
|--0--------2-2-2-2-2--------2------0--------2------2-----|
|--2--------3-3-3-3-3----------3----2--------3------3-----|
|--3--------------------------------3---------------------|
   G        C                       G        C     Csus4 

guitar 1/2 (could be either)
|----------------|
|--8---------6---|
|--0---------0---|
|--7---------7---|
|--8---------8---|
|----------------|
all this time...


guitar 1
|---------------------------|
|------6-----6--6--5--------|
|---7-----7-----------8-----|
|---------------------------|
|---------------------------|
|---------------------------|
            
Hard to play? Try these video lessons and learn fast. | Correct




comments powered by Disqus
↑ Back to top | Tablatures and chords are parodies/interpretations of the original songs. You may use it for private study, scholarship, research or language learning purposes only