» » »

Family Force 5, Never Let Me Go Bass tabs (ver.1)

Artists:  A B C D E F G H I J K L M N O P Q R S T U V W X Y Z # 

Never Let Me Go Bass tabs (ver.1)

Family Force 5 Tabs
 Rating:
4/5 (6 votes)
Never Let Me Go lessons Tabs too difficult? Try these video lessons and learn fast
1
                -----------------------------------------------------------------------------
-----------------------------------------------------------------------------


Tuning: Drop C Low to High (C-G-C-F)

Intro:

F|-----------------|        |-------|
C|--------6--------| Twice  |-------| play that on the end of the intro
G|-----------------|        |-------|
C|3p0-5p3---3p0-5p3|        |3h5p3h5|

Verse                                   
F|--------------------------------------------------|  play through the
C|6-----------6--------------------6----------------|  whole verse
G|--------------------------------------------------|  
C|--3p0-5p3-----3p0-5p3--3p0-5p3-----3p0-5p3-3h5p3h5|   

Pre-chorus

F|-----------------|
C|6----------------| play through the pre-chorus  
G|-----------------|
C|--3p0-5p3-3h5p3h5|

Chorus

F|----------------------------------------------------|
C|----------------------------------------------------|
G|----------------------------------------------------|
C|5-0-5-7-7-8--5-0-5-7-7-8--5-0-5-7-7-8--5-0-5-8888887|

Awesome Post-chorus part

F|------------------------------------------------------|
C|------------------------------------------------------|
G|------------------------------------------------------|
C|8\10-10-10-11-8-5-5-5-6-5-5-8\10-10-10-11-8-5-5-5-6-5/|

Verse agaaiiinnn

Hardcore Breakdown

F|----------------------------------------------------------------------|
C|----------------------------------------------------------------------|
G|----------------------------------------------------------------------|
C|0-0-0-0-0-0-0-0-0-0-0-0-0--5-5-5-5--1-1-1-1--5-5-5-5--1-1-1-1--5-5-5-5|

F|-----------------------------------------------|
C|-----------------------------------------------|
G|-----------------------------------------------|
C|1-1-1-1--5-5-5-5--2-2-2-2-2-2-2-2-5-5-5-5-7-7-8|

then chorus twice and that's it!

| /  slide up
| \  slide down
| h  hammer-on
| p  pull-off
| ~  vibrato
| +  harmonic
| x  Mute note
=============================================================================
            
Submit corrections

comments powered by Disqus
↑ Back to top | Family Force 5 Bass for Never Let Me Go. Lyrics for acoustic guitar and electric guitar. 1 Tablatures and chords are parodies/interpretations of the original songs. You may use it for private study, scholarship, research or language learning purposes only