>
 >
My Favorite Things

My Favorite Things Guitar Tabs

Family Force 5 - My Favorite Things chords, tabs, tablatures, lyrics

Guitar lessons | Add/correct | Request | Top 50 tabs Artists:  A B C D E F G H I J K L M N O P Q R S T U V W X Y Z 0-9

My Favorite Things Guitar Tabs – Family Force 5

CD, Sheet music, Poster

Do you like My Favorite Things? Share with your friends now
Tabs
This song is awesome and that's why I tabbed it out. I think it's probably their 
heaviest/hardest song to play(still not that hard haha) but it's pretty cool. Please please 
please please leave me suggestions or comments AND RATE FOO

I <3 FF5

~ - let it ring(/sometimes a vibrato)
h - hammer on
p - pull off
b - bend string
r - return bend
/ - slide

~Verse 1~ (0:00-0:52)
(Guitar Break)

~Chorus 1~ (0:53-1:12)

D|--------------------------------------------------------------------|
A|--------------------------------------------------------------------|
F|--------------------------------------------------------------------|
C|-0-0---0-0-0--0-0---8-8-8-8-8-8-8--8-8-8-5-5---5-5-5--5-5--5-5--5-|
G|-0-0---0-0-0--0-0---8-8--8-8-8--8-8--8-8-8-5-5---5-5-5--5-5--5-5--5-|
C|-0-0---0-0-0--0-0---8-8--8-8-8--8-8--8-8-8-5-5---5-5-5--5-5--5-5--5-|

D|---------------------------|
A|---------------------------|
F|---------------------------|
C|-7-7---8-8--7---5-7-7--7/0-|
G|-7-7---8-8--7---5-7-7--7/0-|
C|-7-7---8-8--7---5-7-7--7/0-|

~Verse 2~ (1:13-1:45)
(Guitar Break)

~Chorus 2~ (1:46-2:21)
_________________________PICKSLIDE!!!!!! :-D________________________________

D|--------------------------------------------------------------------|
A|--------------------------------------------------------------------|
F|--------------------------------------------------------------------|
C|-0-0---0-0-0--0-0---8-8-8-8-8-8-8--8-8-8-5-5---5-5-5--5-5--5-5--5-|
G|-0-0---0-0-0--0-0---8-8--8-8-8--8-8--8-8-8-5-5---5-5-5--5-5--5-5--5-|
C|-0-0---0-0-0--0-0---8-8--8-8-8--8-8--8-8-8-5-5---5-5-5--5-5--5-5--5-|

D|-------------------------|
A|-------------------------|
F|-------------------------|
C|-7-7---8-8--7---5-7-7--7-|
G|-7-7---8-8--7---5-7-7--7-|
C|-7-7---8-8--7---5-7-7--7-|
[(2:05-2:21)]
D|-------------------------------------------------------------------|
A|-------------------------------------------------------------------|
F|-7~~-7-7--7-7--7-7-------------------------------------------------|
C|-7~~-7-7--7-7--7-7--8-8--8-8-8--8-8--8-8-8-5-5---5-5-5--5-5--5-5--5|
G|-5~~-5-5--5-5--5-5--8-8--8-8-8--8-8--8-8-8-5-5---5-5-5--5-5--5-5--5|
C|--------------------8-8--8-8-8--8-8--8-8-8-5-5---5-5-5--5-5--5-5--5|
              ^^^^-tricky rhythm
D|-------------------------|
A|-------------------------|
F|-------------------------|
C|-7-7---8-8--7---5-7-7--7-|
G|-7-7---8-8--7---5-7-7--7-|
C|-7-7---8-8--7---5-7-7--7-|

~Solo~ (2:22-2:44)

Guitar 1
D|----------------------------------------------|
A|----------------------------------------------|
F|----14-15-14----14-15-14----14-15-14-17-14-15-|  3x
C|-12----------12----------12-------------------|
G|----------------------------------------------|
C|----------------------------------------------|

D|--------------------------------------------------------------------|
A|--------------------------------------------------------------------|
F|-15-14-12-14-12-10-12-10-12-14-12-10-12-10-9-10-9-7-9-7----7------7~|
C|--------------------------------------------------------10---10-7---|
G|--------------------------------------------------------------------|
C|--------------------------------------------------------------------|

Guitar 2
D|-------------------------------------------------|
A|-------------------------------------------------|
F|-14~---------------14~---------------------------|
C|-----14~h15p14-12~-----14~h15p14-12~---12~-14-12-|
G|-------------------------------------------------|
C|-------------------------------------------------|

D|-------------------------------------------------------------------------|
A|-------------------------------------------------------------------------|
F|15-14-12-14-12-10-12-10-12-14-12-10-15-14-12-14-12-10-12-10-12-14-12-10--|
C|-----------------------------------------------------------------------12|
G|-------------------------------------------------------------------------|
C|-------------------------------------------------------------------------|

~Verse 3~ (2:45-3:14)

Radom quiet pickslide 3:00

~Chorus 3~ (3:15-3:50)
Pickslide w/ delay
D|--------------------------------------------------------------------|
A|--------------------------------------------------------------------|
F|--------------------------------------------------------------------|
C|-0-0---0-0-0--0-0---8-8-8-8-8-8-8--8-8-8-5-5---5-5-5--5-5--5-5--5-|
G|-0-0---0-0-0--0-0---8-8--8-8-8--8-8--8-8-8-5-5---5-5-5--5-5--5-5--5-|
C|-0-0---0-0-0--0-0---8-8--8-8-8--8-8--8-8-8-5-5---5-5-5--5-5--5-5--5-|

D|---------------------------|
A|---------------------------|
F|---------------------------|
C|-7-7---8-8--7---5-7-7--7/0-|
G|-7-7---8-8--7---5-7-7--7/0-|
C|-7-7---8-8--7---5-7-7--7/0-|


D|-------------------------------------------------------------------|
A|-------------------------------------------------------------------|
F|-7~~-7-7--7-7--7-7-------------------------------------------------|
C|-7~~-7-7--7-7--7-7--8-8--8-8-8--8-8--8-8-8-5-5---5-5-5--5-5--5-5--5|
G|-5~~-5-5--5-5--5-5--8-8--8-8-8--8-8--8-8-8-5-5---5-5-5--5-5--5-5--5|
C|--------------------8-8--8-8-8--8-8--8-8-8-5-5---5-5-5--5-5--5-5--5|

D|-------------------------|
A|-------------------------|
F|-------------------------|
C|-7-7---8-8--7---5-7-7--7-|
G|-7-7---8-8--7---5-7-7--7-|
C|-7-7---8-8--7---5-7-7--7-|

~Weird Outro~ (3:51-3:59)

D|------------------------|
A|-b22-22-22r20(fade out)-|
F|------------------------|
C|------------------------|
G|------------------------|
C|------------------------|





Comments


Popular Family Force 5 tabs & chords
D-i-e 4 Y-o-u Chords
Superhero 3 Chords
The First Time Chords
Topsy Turvy Chords
Earthquake Tabs
Get Your Back Off The Wall Tabs
Ghostride The Whip Tabs
Mamacita Tabs
Radiator 1 Tabs
D-i-e 4 Y-o-u Ukulele


Song lyrics



↑ Back to top | Tablatures and chords are parodies/interpretations of the original songs. You may use it for private study, scholarship, research or language learning purposes only
© 2014 AZChords.com Contact us | Privacy policy | DMCA | Add/correct tabs | Request tabs | Top 50 tabs