» » »

Falling In Reverse, Caught Like A Fly Tabs (ver.1)

Artists:  A B C D E F G H I J K L M N O P Q R S T U V W X Y Z # 

Caught Like A Fly Tabs (ver.1)

Falling In Reverse Tabs
 Rating:
3.4/5 (11 votes)
Caught Like A Fly lessons Tabs too difficult? Try these video lessons and learn fast
1
                07/19/11
Falling In Reverse - Caught Like A Fly
correcting the solo
Tuning: Drop C[C G C F A D]

All copyrights (©) go to ©Falling In Reverse, ©WMG and ©Epitaph Records!

You can easily hear the stumming pattern in the song so I didn't add it
in the tabs.
This is the first time I've tried to learn a song by ear so it might not
be perfect.

d---------------------------------------------------------|
a-13-11-10-9-8-9-10-12---13-13----6-6-----8-8----6-6------|
F------------------------10-10-x4-3-3-x4--5-5-x4-3-3-x2---|
C---------------------------------------------------------|
G---------------------------------------------------------|
C---------------------------------------------------------|

d---------------------------------------------------------|
a------------8-8----6-6----8-8----6-6---------------------|
F------------5-5-x4-3-3-x4-5-5-x4-3-3-x2------------------|
F---------------------------------------------------------|
C-------3/5----------------------------------------3/5----|
G---2-5-----------------------------------------2-5-------|
C-5-------------------------------------------5-----------|

d---------------------------------------------------------|
a-8-8----6-6-----------------8----------------------------|
F-5-5-x4-3-3-x2--------------5-x4-------------------------|
F---------------------------------------------------------|
F---------------------------------------------------------|
C-----------------------3/5--------3--3--5--5-5-3---------|
G-------------------2-5------------3--3--3--3-3-3----2-5--|
C-----------------5----------------3--3---------3--5------|

d---------------------------------------------------------|
a------8-8----6-6----8-8----6-6----6----------------------|
F------5-5-x4-3-3-x4-5-5-x4-3-3-x2-3--3--10-12--8--10-----|
C-3/5---------------------------------1--8--10--6--8------|
G-------------------------------------1--8--10--6--8------|
C-------------------------------------1--8--10--6--8------|

d---------------------------------------------------------|
a---------------------------------------------------------|
F-3--10-12--8---8----6----8----6----------------8----6----|
C-1--8--10--6---5-x8-3-x4-5-x4-3-x2--------3/5--5-x4-3-x4-|
G-1--8--10--6--------------------------2-5----------------|
C-1--8--10--6------------------------5--------------------|

d---------------------------------------------------------|
a-8----6----6---------------------------------------------|
F-5-x4-3-x2-3--3-10--12--8-10--3-10--12--8----------------|
C--------------1--8--10--6--8--1--8--10--6----------------|
G--------------1--8--10--6--8--1--8--10--6----------------|
C--------------1--8--10--6--8--1--8--10--6----------------|

Solo[Thanks for porpoiseboy101 for correcting the solo]
|---------------------------------------------------------------------|
|-------------------------------------------11~--------/13-11~--------|
|-7h8-7h8-7h8----7h8-7h8-7h8----7h8-7h8-7h8-----7h8-7h8---------------|
|-------------8~-----------8~-----------------------------------------|
|---------------------------------------------------------------------|
|---------------------------------------------------------------------|

|---------------------------------------------------------------------|
|-------------------------------------------11~-----------------------|
|-7h8-7h8-7h8----7h8-7h8-7h8----7h8-7h8-7h8-----7-8-7--78107810-------|
|-------------8~-------------8~------------------8-8-8---------578----|
|---------------------------------------------------------------------|
|---------------------------------------------------------------------|


|-------------------18----22b24b22-18~-22b24b22-18/20-----------------|
|-15h16-15h16-15h16----16---------------------------------------------|
|---------------------------------------------------------------------|
|---------------------------------------------------------------------|
|---------------------------------------------------------------------|
|---------------------------------------------------------------------|

|-15h16p15h16---------------------------------------------------------|
|------------1616-----------------------------------------------------|
|----------------1515-------------------------------------------------|
|--------------------181817-------------------------------------------|
|--------------------------1813\11-10-10/11-10-8\6--------------------|
|---------------------------------------------------------------------|

d---------------------------------------------------------|
a---------------------------------------------------------|
F---------------------------------------------------------|
C----------------------------------------13141516-15161718|
G----------------------12131415-13141516------------------|
C--10111213-12131415--------------------------------------|

d----------------------------19b21r19-20b-20b-------------|
a--------------  ---16h19p16------------------------------|
F15161718--17181920---------------------------------------|
C---------------------------------------------------------|
G---------------------------------------------------------|
C---------------------------------------------------------|

Amazing Piano~


d---------------------------------------------------------|
a---------------------------------------------------------|
F-3-1012-8-3-10-12-8--------------------------------------|
C-1-8-10-6-1-8--10-6-----------3/5-------------3/5--------|
G-1-8-10-6-1-8--10-6-------2-5-------------2-5------------|
C-1-8-10-6-1-8--10-6-5-1-5-----------5-1-5----------5-----|
            
Submit corrections

comments powered by Disqus
↑ Back to top | Falling In Reverse Tabs for Caught Like A Fly. Lyrics for acoustic guitar and electric guitar. 1 Tablatures and chords are parodies/interpretations of the original songs. You may use it for private study, scholarship, research or language learning purposes only