>
 >
Caught Like A Fly

Caught Like A Fly Bass Tabs

Falling In Reverse - Caught Like A Fly chords, tabs, tablatures, lyrics

Guitar lessons | Add/correct | Request | Top 50 tabs Artists:  A B C D E F G H I J K L M N O P Q R S T U V W X Y Z 0-9

Caught Like A Fly Bass Tabs – Falling In Reverse

CD, Sheet music, Poster

Do you like Caught Like A Fly? Share with your friends now
Bass TabsChordsTabsUkulele
Intro
F|-------------------------------------|
C|------------3---5------------------5-|
G|--013---2-----3---5-3---2--------35--|
C|-5----5---5-----------5---5-3-3-5----|

Verse
0:17
F|----------------------------------------------------|
C|---------3---5------------------5----------3-3----5-|
G|-3---2-----3---5-3---2--------35---3---2--------35--|
C|---5---5-----------5---5-3-3-5-------5---5-----5----|

0:41
F|-----------------------------------------------|
C|---------------------------------------------5-|
G|-3---2-------------33~-3~-33-3-3-22--------35--|
C|---5---5--3~~-5555-------------------33~--5----|

Pre Chorus
0:56
F|----------------------------------|
C|---------3---5------------------5-|
G|-3---2-----3---5-3---2--------35--|
C|---5---5-----------5---5-3-3-5----|

Chorus
1:11
F|---------------------------------------------------------------------------------------------|
C|---------------------------------------------------------------------------------------------|
G|------------------------1-1-11-1-1-11-1-11-1-1-3-3-33-3-3-33-3-33-3-3------------------------|
C|-1-1-11-1-1-11-1-11-1-1-----------------------------------------------5-5-55-5-5-66-6-66-5-4-|

F|-----------------------------------------------------------------------------------------|
C|-----------------------------------------------------------------------------------------|
G|------------------------1-1-11-1-1-22-2-22-2-2-3-3-33-3-3-33-3-33-3-3--------------------|
C|-1-1-11-1-1-11-1-11-1-1-----------------------------------------------6-6-66-6-6-66-6-66-|

Verse
1:43
F|-------------------------------------------|
C|------------------3---5------------------5-|
G|-3---3--013---2-----3---5-3---2--------35--|
C|---5---5----5---5-----------5---5-3-3-5----|

Pre Chorus
2:02
F|----------------------------------|
C|---------3---5------------------5-|
G|-3---2-----3---5-3---2--------35--|
C|---5---5-----------5---5-3-3-5----|

Chorus
2:18
F|---------------------------------------------------------------------------------------------|
C|---------------------------------------------------------------------------------------------|
G|------------------------1-1-11-1-1-11-1-11-1-1-3-3-33-3-3-33-3-33-3-3------------------------|
C|-1-1-11-1-1-11-1-11-1-1-----------------------------------------------5-5-55-5-5-66-6-66-5-4-|

F|-----------------------------------------------------------------------------------------|
C|-----------------------------------------------------------------------------------------|
G|------------------------1-1-11-1-1-22-2-22-2-2-3-3-33-3-3-33-3-33-3-3--------------------|
C|-1-1-11-1-1-11-1-11-1-1-----------------------------------------------6-6-66-6-6-66-6--6-|

Solo
2:49
F|-------------------------------------------------|
C|-------------------------------------------------|
G|-------------11-1-11-1-1-33-3-33-3-3-33-3-33-1-1-|x3
C|-66-6-66-6-6-------------------------------------|

F|---------------------------------------------|
C|---------------------------------------------|
G|-------------11-1-11-1-1---------------------|
C|-66-6-66-6-6-------------55-5-55-5-5-66-6-68-|

~~break~~

3:49
F|-------------|
C|-------------|
G|-------------|
C|-6-6-6-6-6-6-|

Chorus
3:51
F|---------------------------------------------------------------------------------------------|
C|---------------------------------------------------------------------------------------------|
G|------------------------1-1-11-1-1-11-1-11-1-1-3-3-33-3-3-33-3-33-3-3------------------------|
C|-1-1-11-1-1-11-1-11-1-1-----------------------------------------------5-5-55-5-5-66-6-66-5-4-|

F|----------------------------------------------------------------------------------------------|
C|----------------------------------------------------------------------------------------------|
G|----------------------------------------------------------------------------------------------|
C|-6-6-66-6-6-66-6-66-6-6-1-1-11-1-1-11-1-11-1-1-5-5-55-5-5-55-5-55-5-5-6-6-66-6-6/18(x12)--18\-|

Outro
4:22
F|-----------------------|
C|-----------------------|
G|-3---3--013---3--------|
C|---5---5----5---57810\-|





Comments


Popular Falling In Reverse tabs & chords
Fuck The Rest Bass Tabs
Im Not A Vampire Bass Tabs
Im Not A Vampire 2 Bass Tabs
Im Not A Vampire 1 Chords
Drifter Tabs
Goodbye Graceful Tabs
Im Not A Vampire 1 Tabs
The Westerner Intro Tabs
This Is Not The End Tabs
Tragic Magic Tabs


Song lyrics



↑ Back to top | Tablatures and chords are parodies/interpretations of the original songs. You may use it for private study, scholarship, research or language learning purposes only
© 2014 AZChords.com Contact us | Privacy policy | DMCA | Add/correct tabs | Request tabs | Top 50 tabs