» » »

Falconer, Upon The Grave Of Guilt Tabs (ver.2)

Artists:  A B C D E F G H I J K L M N O P Q R S T U V W X Y Z # 

Upon The Grave Of Guilt Tabs (ver.2)

Falconer Tabs
 Rating:
4/5 (4 votes)
Upon The Grave Of Guilt lessons Tabs too difficult? Try these video lessons and learn fast
1
                
UPON THE GRAVE OF GUILT
As recorded by Falconer
(From the 2002 Album FALCONER)

        



Gtr I (E A D G B E) - 'Cymbal'
Gtr II (D G C F A D) - 'Dist. 1'
Gtr III (D G C F A D) - 'Outro Guitar'
Gtr IV (E A D G B E) - 'Drums'
Gtr V (D G C F A D) - 'Dist. 2'

 Intro
  Q=178
  N.C.       N.C.
 4/4
  GtGtr IV
  W          E S S S S     E S S S S E E
|-0--------|-----------------------------|
|----------|-----------------------------|
|----------|-----------------------------|
|----------|-5-------------5---------5-3-|
|----------|---4-4-4-4-------4-4-4-4-----|
|----------|-----------------------------|


    $
    N.C.
    Gtrs II, V
    PM----|   PM|    PM----|
    S S S S E S S  E S S S S E
||-----------------------------|
||o----------------------------|
||-----------------------------|
||----------7-----10---------7-|
||o-7-7-7-7---7-7----7-7-7-7---|
||-----------------------------|


  N.C.                          N.C.
  PM----|                       PM----|   PM|    PM----|
  S S S S  E  E  S  S  E E  E   S S S S E S S  E S S S S E
|-----------------------------|-----------------------------|
|-----------------------------|-----------------------------|
|-----------------------------|-----------------------------|
|---------10-10-10h12p10-9----|---------7-----10---------7--|
|-7-7-7-7------------------12-|-8-8-8-8---8-8----8-8-8-8----|
|-----------------------------|-----------------------------|


  N.C.                       N.C.
  PM----|                     PM------|     PM|      PM------|
  S S S S  E  E S S E  E E    S  S  S  S E  S  S  E  S  S  S  S E
|--------------------------|--------------------------------------|
|--------------------------|--------------------------------------|
|---------------7h9p7------|--------------------------------------|
|---------10-12-------10-9-|-------------9-------12-------------9-|
|-8-8-8-8------------------|-10-10-10-10---10-10----10-10-10-10---|
|--------------------------|--------------------------------------|


  N.C.
   PM------|
   S  S  S  S  E E S  S E  E  E
|-------------------------------|
|-------------------------------|
|----------------9-9h10p9-------|
|-------------12----------12-10-|
|-10-10-10-10-------------------|
|-------------------------------|


                                                           To Coda
  N.C.                                   N.C.
   PM------|     PM|      PM------|
   S  S  S  S E  S  S  E  S  S  S  S E    E  E E  E  S  S  S S  E  E
|--------------------------------------|------------------------------||
|--------------------------------------|-----------------------------o||
|--------------------------------------|----10-9----------------------||
|-------------9-------12-------------9-|---------12-10h12p10p9--------||
|-11-11-11-11---11-11----11-11-11-11---|-11--------------------12-11-o||
|--------------------------------------|------------------------------||


  N.C.                              N.C.
  Gtr II
  |--3--| |--3--| |--3--| |--3--|    |--3--|  |-3--|  |-3--|
  E  E  E E  E  E E  E  E E  E  E    E  E  E  E  E E  E  E E  E E
|---------------------------------|-12-10--8----------------------||
|-------------------------8-10-12-|----------12-10-8--------------||
|-----------------7--9-10---------|------------------10--9-7--9---||
|---------7--9-10-----------------|-------------------------------||
|-7--8--9-------------------------|-------------------------------||
|---------------------------------|-------------------------------||
|
| Gtr V
| |--3--| |--3--| |--3--| |--3--|    |--3--|  |-3--|  |-3--|
| E  E  E E  E  E E  E  E E  E  E    E  E  E  E  E E  E  E E  E E
|---------------------------------|-------------------------------||
|---------------------------------|-13-12-10----------------------||
|-------------------------9-10-12-|----------12-10-9--------------||
|-----------------9-10-12---------|------------------12-10-9------||
|---------8-10-11-----------------|--------------------------12---||
|-8-10-12-------------------------|-------------------------------||


   Verse 1 and 2
    &
    A5
    Gtrs II, V
    PM-----------------------
    E S S E S S E S S E S S
||--------------------------|
||o-------------------------|
||--------------------------|
||--2-2-2-2-2-2-2-2-2-2-2-2-|
||o-0-0-0-0-0-0-0-0-0-0-0-0-|
||--------------------------|


  C5                        G5
 -------------------------------------------------|
  E S S E S S E S S E S S   E S S E S S E S S E S S
|-------------------------|-------------------------|
|-------------------------|-------------------------|
|-------------------------|-------------------------|
|-5-5-5-5-5-5-5-5-5-5-5-5-|-------------------------|
|-3-3-3-3-3-3-3-3-3-3-3-3-|-5-5-5-5-5-5-5-5-5-5-5-5-|
|-------------------------|-3-3-3-3-3-3-3-3-3-3-3-3-|


  A5         G5      E5        C5      A5
                           PM|
  E E  E E E E E E   +E  E E E Q  Q    E S S E S S E S S E S S
|------------------|-----------------|-------------------------|
|------------------|-----------------|-------------------------|
|------------------|-----------------|-------------------------|
|------------------|-----------5--4--|-2-2-2-2-2-2-2-2-2-2-2-2-|
|-7-7-10-9---5---2-|-(2)-2-5---3--2--|-0-0-0-0-0-0-0-0-0-0-0-0-|
|-5-5--8-7---3---0-|-(0)-0-3-0-------|-------------------------|


  C5                        G5
  E S S E S S E S S E S S   E S S E S S E S S E S S
|-------------------------|-------------------------|
|-------------------------|-------------------------|
|-------------------------|-------------------------|
|-5-5-5-5-5-5-5-5-5-5-5-5-|-------------------------|
|-3-3-3-3-3-3-3-3-3-3-3-3-|-5-5-5-5-5-5-5-5-5-5-5-5-|
|-------------------------|-3-3-3-3-3-3-3-3-3-3-3-3-|


  A5       G5            D5
  Q   E Q  Q  E   +E   E  Q   H
|---------------|-------------------||
|---------------|------------------o||
|---------------|-------------------||
|---------------|-------------------||
|-7--10-9--5--7-|-(7)-10-12--14----o||
|-5---8-7--3--5-|-(5)--8-10--12-----||


 Pre-Chorus
  $$
  C5      B5    G5               D5      C5    A5
                PM--|
  H    Q  E E   E E E E Q  E E   H    Q  E E   W
|-------------|----------------|-------------|------|
|-------------|----------------|-------------|------|
|-------------|----------------|-------------|------|
|-5----5--4-2-|----------------|-7----7--5-4-|-2----|
|-3----3--2-0-|-5-5-5---5--0-3-|-5----5--3-2-|-0----|
|-------------|-3-3-3---3------|-------------|------|


  F5              C5   D5   Eb5   E5       E5     N.C.
  Gtr II
  PM----------|                                                ~
  Q  E E Q  E E   E Q  E Q  E E   E E E Q  E Q    E E E E  E E Q
|---------------|---------------|---------------|-----------------||
|---------------|---------------|---------------|-----------------||
|---------------|---------------|---------------|-9p7h9------7h9--||
|---------------|-5----7----8---|-9-8-9---------|-------9h10------||
|-3--3-3-3--3-3-|-3----5----6---|-7-6-7----2-2--|-----------------||
|-1--1-1-1--1-1-|---------------|----------0-0--|-----------------||
|
| Gtr V
| PM----------|                                                ~
| Q  E E Q  E E   E Q  E Q  E E   E E E Q  E Q    E E E E  E E Q
|---------------|---------------|---------------|-----------------||
|---------------|---------------|---------------|-----------------||
|---------------|---------------|---------------|-----------------||
|---------------|-5----7----8---|-9-8-9---------|-----------------||
|-3--3-3-3--3-3-|-3----5----6---|-7-6-7----2-2--|-7p5h7------5h7--||
|-1--1-1-1--1-1-|---------------|----------0-0--|-------7h=8------||


   Chorus
    A5                          A5
    Gtrs II, V
      PM--------|   PM----|
    E S S S S S S E S S S S E   +E  E E E E     E E     E
||----------------------------|---------------------------|
||o---------------------------|---------------------------|
||----------------------------|---------------------------|
||--2-2-2-2-2-2-2-2-2-2-2-2-2-|-(2)-----------------------|
||o-0-0-0-0-0-0-0-0-0-0-0-0-0-|-(0)-----0-3b3.5-0---------|
||----------------------------|-----0-3-----------3b3.5-0-|


  A5                          A5
    PM--------|   PM----|
  E S S S S S S E S S S S E   +E  E E E E E Q
|---------------------------|-------------------|
|---------------------------|-------------------|
|---------------------------|-------------------|
|-2-2-2-2-2-2-2-2-2-2-2-2-2-|-(2)---------------|
|-0-0-0-0-0-0-0-0-0-0-0-0-0-|-(0)-7-5-------3---|
|---------------------------|---------8-7-5-1---|


                                                  D.S. al Coda
                                                  D.S. al Coda
  G5            G5/D             F5              N.C.
          PM|              PM|           PM------------|
                     |-3-|
  H    Q  E E   H    E E E E E   Q  E Q  E E E   E E E E E Q.
|-------------|----------------|---------------|------------------||
|-------------|----------------|---------------|-----------------o||
|-------------|----------------|---------------|------------------||
|-------------|-5----2p1p0-----|---------------|------------------||
|-5----5--5-5-|-5----------3---|-3----3--------|-------0-3-------o||
|-3----3--3-3-|--------------3-|-1----1--1-3-5-|-3-0-3-----3------||


 Bridge
  N.C.       N.C.       C5        G5
                       3/4
  W          W          H.        H.
|----------|----------|---------|---------|
|----------|----------|---------|---------|
|----------|----------|---------|---------|
|----------|----------|-5-------|---------|
|----------|----------|-3-------|-5-------|
|----------|----------|---------|-3-------|


  C5        G5        C5        F5          G5
  H.        H.        H.          H.         H.
|---------|---------|---------|-----------|--------|
|---------|---------|---------|-----------|--------|
|---------|---------|---------|-----------|--------|
|-5-------|---------|-5-------|-/10-------|-12-----|
|-3-------|-5-------|-3-------|--/8-------|-10-----|
|---------|-3-------|---------|-----------|--------|


  G5           C5        G5        C5
   +H.         H.        H.        H.
|------------|---------|---------|---------|
|------------|---------|---------|---------|
|------------|---------|---------|---------|
|-(12)\------|-5-------|---------|-5-------|
|-(10)\------|-3-------|-5-------|-3-------|
|------------|---------|-3-------|---------|


  G5        C5        F5        G5        E5
  H.        H.        H.        H.        H.
|---------|---------|---------|---------|-------|
|---------|---------|---------|---------|-------|
|---------|---------|---------|---------|-------|
|---------|-5-------|---------|---------|-------|
|-5-------|-3-------|-3-------|-5-------|-2-----|
|-3-------|---------|-1-------|-3-------|-0-----|


  C5         G5         C5         G5         C5
  PM------------------------------------------------|
  Q  Q  Q    Q  Q  Q    Q  Q  Q    Q  Q  Q    Q  Q  Q
|----------|----------|----------|----------|-----------|
|----------|----------|----------|----------|-----------|
|----------|----------|----------|----------|-----------|
|-5--5--5--|----------|-5--5--5--|----------|-5--5--5---|
|-3--3--3--|-5--5--5--|-3--3--3--|-5--5--5--|-3--3--3---|
|----------|-3--3--3--|----------|-3--3--3--|-----------|


  F5         G5        G5         C5         G5
  PM----|                         PM---------------|
  Q  Q  Q    H.          Q Q Q    Q  Q  Q    Q  Q  Q
|----------|---------|----------|----------|-----------|
|----------|---------|----------|----------|-----------|
|-5--5--5--|-7-------|---7-7-7--|----------|-----------|
|-3--3--3--|-5-------|---5-5-5--|-5--5--5--|-----------|
|----------|---------|----------|-3--3--3--|-5--5--5---|
|----------|---------|----------|----------|-3--3--3---|


  C5         G5         C5         F5         G5
  PM-------------------------------------|
  Q  Q  Q    Q  Q  Q    Q  Q  Q    Q  Q  Q    Q.   E E E
|----------|----------|----------|----------|-------------|
|----------|----------|----------|----------|-------------|
|----------|----------|----------|----------|-------------|
|-5--5--5--|----------|-5--5--5--|----------|-------------|
|-3--3--3--|-5--5--5--|-3--3--3--|-3--3--3--|-5----5-5-5--|
|----------|-3--3--3--|----------|-1--1--1--|-3----3-3-3--|


  E5          A5           A5          C5          C5
                     PM|                  PM---|
  Q.   E Q    Q.   E E E   Q  E E Q    Q  E Q  E   Q  E E Q
|-----------|------------|-----------|-----------|------------|
|-----------|------------|-----------|-----------|------------|
|-----------|------------|-----------|-----------|------------|
|-----------|-2----2-----|-2---------|-5--5-5--5-|-5----------|
|-2----2-2--|-0----0-0-0-|-0--2p0-2--|-3--3-3--3-|-3--2p0-----|
|-0----0-0--|------------|-----------|-----------|--------3---|


  A5           A5          F5        E5  F5  G5   A5
       PM--|                         PM  PM  PM          PM|
  Q.   E E E   Q  E E Q    H.        E E E E Q    Q.   E E E
|------------|-----------|---------|------------|-------------|
|------------|-----------|---------|------------|-------------|
|------------|-----------|---------|------------|-------------|
|-2----------|-2---------|---------|------------|-2----2------|
|-0----0-0-0-|-0--2p0----|-3-------|-2---3---5--|-0----0-0-0--|
|------------|--------3--|-1-------|-0---1---3--|-------------|


  A5          C5          C5          D5        E5        F5
                 PM---|
  Q  E E Q    Q  E Q  E   Q  E E Q    H.        H.         H.
|-----------|-----------|-----------|---------|---------|--------|
|-----------|-----------|-----------|---------|---------|--------|
|-----------|-----------|-----------|---------|---------|--------|
|-2---------|-5--5-5--5-|-5---------|-7-------|-9-------|-10-----|
|-0--2p0-2--|-3--3-3--3-|-3--2p0----|-5-------|-7-------|--8-----|
|-----------|-----------|--------3--|---------|---------|--------|


                                         D.S.S. al Dbl. Coda
  G5   E5  D5    E5        E5         E5         E5
   PM------|
   E E E E E E   H.        +H.        +H.        +E  H    E
|--------------|---------|----------|----------|-------------||
|--------------|---------|----------|----------|-------------||
|--------------|---------|----------|----------|-------------||
|-12---9---7---|-9-------|-(9)------|-(9)------|-(9)---------||
|-10---7---5---|-7-------|-(7)------|-(7)------|-(7)---------||
|--------------|---------|----------|----------|-------------||


 Acoustic Outro
  &&
  N.C.     N.C.     N.C.
  Gtr III
  W        W        W
|--------|--------|------|
|--------|--------|------|
|--------|--------|------|
|--------|--------|------|
|--------|--------|------|
|--------|--------|------|


  N.C.
  Q   Q  Q    +Q    E E E   E   E E E  Q.
|--------8--|-(8)-------------|-------------|
|----10-----|-----------------|-------------|
|-9---------|------10p9-7\----|-------------|
|-----------|--------------10-|-9-7-9-10----|
|-----------|-----------------|-------------|
|-----------|-----------------|-------------|


   +Q.    E E E     E E E Q.     +Q.    E E E     E E E Q.
|----------------|-------------|---------------|--------------|
|----------------|-------------|---------------|--------------|
|--------10p9-7\-|-------------|---------------|--------------|
|-(10)-----------|-10-9-7-9----|-(9)---10p9-7\-|--------------|
|----------------|-------------|---------------|-10-8-7-8-----|
|----------------|-------------|---------------|--------------|


  N.C.
                           ~~~~~~~~~~~~~~~~~~~~~~~~~
  +Q.     Q   E    +H      Q     +Q.    Q.      +Q    Q   Q
|---------------|-------------|--------------|---------------|
|---------------|---------12--|-(12)---13----|-(13)--15--13--|
|------------14-|-(14)--------|--------------|---------------|
|-------/15-----|-------------|--------------|---------------|
|-(8)-----------|-------------|--------------|---------------|
|---------------|-------------|--------------|---------------|


             ~~~~~~~~~~                  ~~
   Q   E  E  Q     +Q    Q   Q     E  E  H
|-----12p10-12--|-(12)----------|-12p10-12----|
|-12------------|-------13--12--|-------------|
|---------------|---------------|-------------|
|---------------|---------------|-------------|
|---------------|---------------|-------------|
|---------------|---------------|-------------|


  N.C.
                   ~~                    ~~~~
   Q   Q   E  E    H     Q     Q   E  E  Q
|-15--17--12----|-12----15--|-17--12----12--|
|------------15-|-----------|--------15-----|
|---------------|-----------|---------------|
|---------------|-----------|---------------|
|---------------|-----------|---------------|
|---------------|-----------|---------------|


 ~~~~~~                  ~~
   +Q    Q   Q     E  E  H       Q   Q   E  E
|-(12)--15--17--|-13----13----|-15--17--13----|
|---------------|----17-------|------------17-|
|---------------|-------------|---------------|
|---------------|-------------|---------------|
|---------------|-------------|---------------|
|---------------|-------------|---------------|


   ~~                    ~~~~~~~~~~                  ~~
   H     Q     Q   E  E  Q     +Q    Q   Q     E  E  H       Q   Q  Q
|-13----17--|-19--15----15--|-(15)--17--19--|-15----15----|-17--19-20-|
|-----------|--------18-----|---------------|----18-------|-----------|
|-----------|---------------|---------------|-------------|-----------|
|-----------|---------------|---------------|-------------|-----------|
|-----------|---------------|---------------|-------------|-----------|
|-----------|---------------|---------------|-------------|-----------|


   +H    Q       +H    Q       +H    Q       +H   Q
|-(20)--19----|-(19)--20----|-(20)--19----|-(19)-------*|
|-------------|-------------|-------------|------------*|
|-------------|-------------|-------------|------------*|
|-------------|-------------|-------------|------------*|
|-------------|-------------|-------------|------------*|
|-------------|-------------|-------------|------------*|



Duration Legend
---------------
W - whole; H - half; Q - quarter; E - 8th; S - 16th; T - 32nd; X - 64th; a - acciaccatura
+ - note tied to previous; . - note dotted; .. - note double dotted
Uncapitalized letters represent notes that are staccato (1/2 duration)
Irregular groupings are notated above the duration line
Duration letters will always appear directly above the note/fret number it represents the
duration for.  Duration letters with no fret number below them represent rests.  Multi-
bar rests are notated in the form Wxn, where n is the number of bars to rest for.  Low
melody durations appear below the staff

Tablature Legend
----------------
 h   - hammer-on
 p   - pull-off
 b   - bend
 pb  - pre-bend
 r   - bend release (if no number after the r, then release immediately)
 /\  - slide into or out of (from/to "nowhere")
 s   - legato slide
 S   - shift slide
 - natural harmonic
[n]  - artificial harmonic
n(n) - tapped harmonic
 ~   - vibrato
 tr  - trill
 T   - tap
 TP  - trem. picking
 PM  - palm muting
\n/  - tremolo bar dip; n = amount to dip
 \n  - tremolo bar down
 n/  - tremolo bar up
/n\  - tremolo bar inverted dip
 =   - hold bend; also acts as connecting device for hammers/pulls
 <> - volume swell (louder/softer)
 x   - on rhythm slash represents muted slash
 o   - on rhythm slash represents single note slash

Misc Legend
-----------
 |  - bar
||  - double bar
||o - repeat start
o|| - repeat end
*|  - double bar (ending)
 :  - bar (freetime)
 $  - Segno
 &  - Coda
Tempo markers -  = BPM(8/16=s8/s16), where s8 = swing 8ths, s16 = swing 16ths
            
Submit corrections

comments powered by Disqus
↑ Back to top | Falconer Tabs for Upon The Grave Of Guilt. Lyrics for acoustic guitar and electric guitar. 1 Tablatures and chords are parodies/interpretations of the original songs. You may use it for private study, scholarship, research or language learning purposes only