» » »

Fake Shark - Real Zombie, Wolf Is The New The Bass tabs (ver.1)

Artists:  A B C D E F G H I J K L M N O P Q R S T U V W X Y Z # 

Wolf Is The New The Bass tabs (ver.1)

Fake Shark - Real Zombie Tabs
 Rating:
4/5 (4 votes)
Wolf Is The New The lessons Tabs too difficult? Try these video lessons and learn fast
1
                Album:Zebra!Zebra!

It's not perfect but it'll get you on the rite track
Try it, comment and rate!

Intro:1x
G--------------------------------|
D-3(ring)---6(ring)--------------|
A--------------------4(ring)-----|
E----------------------------5-4-|

G-----------------|
D-3-3-3-3-6-6-----|
A-------------7-7-|
E-----------------|

Verse:4x
G----------------------------------3------|
D-3-3-5--6----------2-2-3--5--5-55---5-4--|
A----------33333-1------------------------|
E-----------------------------------------|

Chorus:4x                         After 4x
G-------------5-------------------|------------------|
D-6-(slide)-2---5-3-3-3-3-3-3-3-3-|-3-3-3-3-3-3-3-33-|
A---------------------------------|------------------|
E---------------------------------|------------------|

Post Chorus:2x
G--------------------------------------------|
D-3-3-5--6------------2-2-3--5---------------|
A-------------3(ring)------------------------|
E-------------------------------3-3-0 (ring)-|

Bridge:2x                    After 1x After 2x
G----------------------------|--------|--------|
D-33333333-66666666----------|7776666-|7-7-6-6-|
A-------------------44444444-|--------|--------|
E----------------------------|--------|--------|

END
            
Submit corrections

comments powered by Disqus
↑ Back to top | Fake Shark - Real Zombie Bass for Wolf Is The New The. Lyrics for acoustic guitar and electric guitar. 1 Tablatures and chords are parodies/interpretations of the original songs. You may use it for private study, scholarship, research or language learning purposes only