» » »

Fake Shark - Real Zombie, Wolf Is The New The Tabs (ver.1)

Artists:  A B C D E F G H I J K L M N O P Q R S T U V W X Y Z # 

Wolf Is The New The Tabs (ver.1)

Fake Shark - Real Zombie Tabs
 Rating:
4/5 (4 votes)
Wolf Is The New The lessons Tabs too difficult? Try these video lessons and learn fast
                -------------------------------------------------------------------------------
-------------------------------------------------------------------------------

Tuning: standard

intro (whole notes under electro part)
E|---------------------------------------------------------------------------|
B|---------------------------------------------------------------------------|
G|---------------------------------------------------------------------------|
D|---------------------------------------------------------------------------|
A|---------------------------------------------------------------------------|
E|-(1)------------------------------(4)--------------------------------------|
  "Feelin dirty, feel f**kin gross,   Need a shower, need one the most

e|---------------------------------------------------------------------------|
B|---------------------------------------------------------------------------|
G|---------------------------------------------------------------------------|
D|---------------------------------------------------------------------------|
A|-(4)-----------------------------------------------------------------------|
E|------------------------------------------------(5)-------------(4)--------|
 tell me this and that story till the river bend, tellme stop, you dont need sleep"


e|-------------------------------|--x-x------x-x------x-x-----x-x-----|
B|-------------------------------|--x-x------x-x------x-x-----x-x-----|
G|-------------------------------|--x-x------x-x------x-x-----x-x-----|
D|-------------------------------|--x-x------x-x------x-x-----x-x-----|
A|-------------------------------|--x-x-4----x-x-4----x-x-4---x-x-4---|
E|-1-0-1-0-1-0--4-4-4-4-0-0-0-0--|--x-x---5--x-x---5--x-x---5-x-x---5-|

First Verse 0:21
e|--------------------------|-----------------------------|
B|--------------------------|-----------------------------|
G|*-------------------------|----------------------------*|
D|*------------------10-----|----------------------------*|
A|--8--8-10-11--------------|-7--7-8-10-------------------|
E|--------------8--8----7-6-|------------4--4-3-4-3-1-----|
"Filthy and Rich..."

0:31 (off beats)
e|--13--13--13--13/15--15--15--15\12--12--12---16--16--16--16----|
B|---------------------------------------------------------------|
G|*-13--13--13--13/15--15--15--15\12--12--12---17--17--17--17---*|
D|*-------------------------------------------------------------*|
A|---------------------------------------------------------------|
E|---------------------------------------------------------------|
"a toxic mess..."

Chorus 0:41                                            (x4) then...
e|---------------------------------------------------------|----------------------------|
B|---------------------------------------------------------|--11-11-11-11-11-11-11-11---|
G|*-------------------------------------------------------*|*-10-10-10-10-10-10-10-10--*|
D|*-------------------------------------------------------*|*--------------------------*|
A|-----------------------8-8-8-8-8-8-8-8-8-8-8-8-8-8-8-8---|--8--8--8--8--8--8--8--8----|
E|---4----0---/8---\3--------------------------------------|----------------------------|
"We're so much richer now..."                               "fix-up,fix-up,fix-up..."

Bridge 1:03 (Clean)                               (distortion...)
e|----------------------------|--------------------------------------------------|
B|---9----11----8-------------|---9----11----8-----17--17--17--17--17------------|
G|---0----0-----0-------------|---0----0-----0-----------------------------------|
D|---x----x-----x----2--1--0--|---x----x-----x-----15--15--15--15--15------------|
A|---8----10----7----2--1--0--|---8----10----7-----------------------------------|
E|-------------------2--1--0--|--------------------------------------------------|

Reprise /                                  Solo 1:23
e|----------------------------------------|----------------------------------------|
B|----------------------------------------|--------------------11-11-11~--11-9p0---|
G|----------------------------------------|--12p10-10-10~-10h12~-(12)--------------|
D|----------------------------------------|----------------------------------------|
A|---------------------4------------------|----------------------------------------|
E|-1---------4------------------5----4----|----------------------------------------|

------------------------------------------------------------|
13-11p0-15-13-16-18~----8-----8-----8-----8-----5-5--4-4----|
-------------------------7-----7-----7-----7---5-5--4-4-----|
---------------------5-----5-----5-----5--------------------|
------------------------------------------------------------|
-----------------------------------------------5-5--4-4-----|

| /  slide up
| \  slide down
| h  hammer-on
| p  pull-off
| ~  vibrato
| +  harmonic
| x  Mute note
===============================================================================
            
Submit corrections

comments powered by Disqus
↑ Back to top | Fake Shark - Real Zombie Tabs for Wolf Is The New The. Lyrics for acoustic guitar and electric guitar. Tablatures and chords are parodies/interpretations of the original songs. You may use it for private study, scholarship, research or language learning purposes only