» » »

Monday Tuesday Wtf Tabs (ver.1)

Artists:  A B C D E F G H I J K L M N O P Q R S T U V W X Y Z # 

Monday Tuesday Wtf Tabs (ver.1)

Fake Shark - Real Zombie
Rating:
0/5 (0 votes)

Hard to play? Try these video lessons and learn fast.
                -------------------------------------------------------------------------------
                             Monday Tuesday WTF? - Fake Shark - Real Zombie!
-------------------------------------------------------------------------------

Tuning:

e|--------------------|
B|--------------------|
G|----11--11--11------|
D|----10--10--10------|
A|----9---9---9-------|
E|--------------------|
"....WHAT THE f**k???"

  Clean (0:06)                                            Distortion 
e|--------------------------------------------------------19-19-19-19--------|
B|--------------------------------------------------------18-18-18-18--------|
G|--------------------------------------------------------16-16-16-16--------|
D|---------------------------------------------------------------------------|
A|--------------------------5--5--5------------------------------------------|
E|-5-7-0-5-7-0-5-7-0-5-7-0----------4--4--4--1--1--1-------------------------|

Main Riff 
e|-------------------------------------------------------------|
B|-------------------------------------------------------------|
G|-------------------------------------------------------------|
D|-------------------------------------------------------------|
A|--------------------------5--5--5-------------------4--4--4--|
E|-5-7-0-5-7-0-5-7-0-5-7-0----------4--4--4--1--1--1-----------|

Break (0:21)
e|--------8p0-0-----7p0-0-----5p0-0--0-0-0-0----|
B|--10-10-------8-8-------6-6--------2-2-2-2----|
G|----------------------------------------------|
D|----------------------------------------------|
A|----------------------------------------------|
E|----------------------------------------------|

   (0:23)                                  (x4)  (0:38)
e|--------8p0-0-----7p0-0----------------------|-0~-----------|
B|--10-10-------8-8----------------------------|-0~-----------|
G|*-------------------------------------------*|-0~-----------|
D|*-------------------------------------------*|--------------|
A|----------------------------------4--4--4----|--------------|
E|-------------------------1--1--1-------------|-5~~~(5)~~(5)-|
   "Burn this b**ch down"


CHORUS 
e|--------------------------|
B|----------------x-x-------|
G|----8---8---8---x-x-8--8--|
D|----7---7---7---x-x-7--7--|
A|----6---6---6---x-x-6--6--|
E|--------------------------|
"....WHAT THE f**k??  YA!YA!"



Outro (0:48)
    PM---------             PM--------
e|-----------------------------------------------------|
B|-----------------------------------------------------|
G|*---------------------------------------------------*|
D|*---------------------------------------------------*|
A|--12-12-12-12-14-14-15-15-12-12-12-12-14-14-15-15----|
E|-----------------------------------------------------|
    
   PM---------              PM---------
e|---------------------------------------------------|
B|---------------------------------------------------|
G|*-------------------------------------------------*|
D|*-------------12-12-13-13-------------12-12-13-13-*|
A|--11-11-11-11-------------11-11-11-11--------------|
E|---------------------------------------------------|
    "Set the days ablaze....."

e|------------------------------------------------------------------|
B|------------------------------------------------------------------|
G|------------------------------------------------------------------|
D|------------------------------------------------------------------|
A|-12~--14--15--12~--14--15--12~--14--15--12~--14--15--12~--14--15--|
E|------------------------------------------------------------------|
   "I do, know you..."
e|------------------------------------------------------------------|
B|------------------------------------------------------------------|
G|------------------------------------------------------------------|
D|------12--13-------12--13-------12--13-------12--13-------12--13--|
A|-11~----------11~----------11~----------11~----------11~----------|
E|------------------------------------------------------------------|


| /  slide up
| \  slide down
| h  hammer-on
| p  pull-off
| ~  vibrato
| +  harmonic
| x  Mute note
===============================================================================
            
Hard to play? Try these video lessons and learn fast. | Correct




comments powered by Disqus
↑ Back to top | Tablatures and chords are parodies/interpretations of the original songs. You may use it for private study, scholarship, research or language learning purposes only