» » »

Fake Shark - Real Zombie, Monday Tuesday Wtf Bass tabs (ver.1)

Artists:  A B C D E F G H I J K L M N O P Q R S T U V W X Y Z # 

Monday Tuesday Wtf Bass tabs (ver.1)

Fake Shark - Real Zombie Tabs
Rating:
0/5 (0 votes)
Hard to play? Try these video lessons and learn fast.
                Album:Zebra!Zebra!

This should sound way better than the last. 
 

Intro:1x
G-------|
D-9-9-9-|
A-------|
E-------|

Verse:2x
G-------------------------------------------------9-9-9-|
D-7-10---7-10---7-10---7-10-7-------6-6-6--9-9-9--------|
A------7------7------7--------7-7-7---------------------|
E-------------------------------------------------------|

Chorus:1x              Play:4x              After 4x
G----------------------|--------------------|---------|
D----------------------|--------------------|---------|
A-4444-----------4-4-4-|--------------4-4-4-|-0(ring)-|
E------5-----1-1-------|-5-5-5-5--1-1-------|---------|

Post-Chorus:1x
G-------------|
D-------------|
A-9-9-9---9-9-|
E-------------|

2nd Verse:2x                                          After 2x
G-----------------------------------------------------|------------|
D-7-10---7-10---7-10---7-10-7--6-9--6-9---6-9---6-9---|---6-7-9-10-|
A------7------7------7------------7-----7-----7-----7-|-7----------|
E-----------------------------------------------------|------------|

Bridge:7x
G-------------------------------------|
D-------------(slide)9-7-7-7--6-7-8---|
A-8-8-8--2-2-2----------------------7-|
E-------------------------------------|

Outro:1x
G---------------------------------|
D-------------(slide)9-7-7--7-----|
A-8-8-8--2-2-2-------------8--7---|
E-------------------------------5-|
            

comments powered by Disqus
↑ Back to top | Fake Shark - Real Zombie Bass for Monday Tuesday Wtf. Lyrics for acoustic guitar and electric guitar. Tablatures and chords are parodies/interpretations of the original songs. You may use it for private study, scholarship, research or language learning purposes only